ISO-10303-21;
HEADER;
FILE_DESCRIPTION (( 'STEP AP214' ),
    '1' );
FILE_NAME ('107400002X400A.STEP',
    '2013-02-25T17:22:07',
    ( '' ),
    ( '' ),
    'SwSTEP 2.0',
    'SolidWorks 2012',
    '' );
FILE_SCHEMA (( 'AUTOMOTIVE_DESIGN' ));
ENDSEC;

DATA;
#1 = ADVANCED_FACE ( 'NONE', ( #265, #314 ), #89, .T. ) ;
#2 = ADVANCED_FACE ( 'NONE', ( #264 ), #259, .F. ) ;
#3 = ADVANCED_FACE ( 'NONE', ( #262 ), #257, .T. ) ;
#4 = ADVANCED_FACE ( 'NONE', ( #260 ), #253, .T. ) ;
#5 = ADVANCED_FACE ( 'NONE', ( #258 ), #263, .T. ) ;
#6 = ADVANCED_FACE ( 'NONE', ( #254, #252 ), #83, .T. ) ;
#7 = ADVANCED_FACE ( 'NONE', ( #261 ), #249, .F. ) ;
#8 = ADVANCED_FACE ( 'NONE', ( #255 ), #245, .T. ) ;
#9 = ADVANCED_FACE ( 'NONE', ( #250 ), #243, .T. ) ;
#10 = ADVANCED_FACE ( 'NONE', ( #246 ), #241, .T. ) ;
#11 = EDGE_CURVE ( 'NONE', #283, #281, #242, .T. ) ;
#12 =( GEOMETRIC_REPRESENTATION_CONTEXT ( 3 ) GLOBAL_UNCERTAINTY_ASSIGNED_CONTEXT ( ( #203 ) ) GLOBAL_UNIT_ASSIGNED_CONTEXT ( ( #182, #181, #180 ) ) REPRESENTATION_CONTEXT ( 'NONE', 'WORKASPACE' ) );
#13 =( GEOMETRIC_REPRESENTATION_CONTEXT ( 3 ) GLOBAL_UNCERTAINTY_ASSIGNED_CONTEXT ( ( #202 ) ) GLOBAL_UNIT_ASSIGNED_CONTEXT ( ( #158, #156, #155 ) ) REPRESENTATION_CONTEXT ( 'NONE', 'WORKASPACE' ) );
#14 = AXIS2_PLACEMENT_3D ( 'NONE', #110, #111, #109 ) ;
#15 = EDGE_CURVE ( 'NONE', #284, #289, #256, .T. ) ;
#16 = AXIS2_PLACEMENT_3D ( 'NONE', #115, #198, #87 ) ;
#17 = AXIS2_PLACEMENT_3D ( 'NONE', #88, #107, #86 ) ;
#18 = EDGE_CURVE ( 'NONE', #281, #278, #251, .T. ) ;
#19 = AXIS2_PLACEMENT_3D ( 'NONE', #72, #74, #75 ) ;
#20 = AXIS2_PLACEMENT_3D ( 'NONE', #193, #197, #142 ) ;
#21 = AXIS2_PLACEMENT_3D ( 'NONE', #77, #78, #79 ) ;
#22 = EDGE_CURVE ( 'NONE', #283, #286, #248, .T. ) ;
#23 = AXIS2_PLACEMENT_3D ( 'NONE', #195, #131, #117 ) ;
#24 = AXIS2_PLACEMENT_3D ( 'NONE', #167, #161, #157 ) ;
#25 = AXIS2_PLACEMENT_3D ( 'NONE', #141, #138, #132 ) ;
#26 = AXIS2_PLACEMENT_3D ( 'NONE', #151, #177, #150 ) ;
#27 = AXIS2_PLACEMENT_3D ( 'NONE', #130, #129, #128 ) ;
#28 = AXIS2_PLACEMENT_3D ( 'NONE', #122, #120, #123 ) ;
#29 = EDGE_CURVE ( 'NONE', #280, #279, #247, .T. ) ;
#30 = EDGE_CURVE ( 'NONE', #289, #279, #240, .T. ) ;
#31 = EDGE_CURVE ( 'NONE', #287, #288, #238, .T. ) ;
#32 = EDGE_CURVE ( 'NONE', #285, #287, #323, .T. ) ;
#33 = EDGE_CURVE ( 'NONE', #234, #288, #237, .T. ) ;
#34 = EDGE_CURVE ( 'NONE', #234, #285, #229, .T. ) ;
#35 = EDGE_CURVE ( 'NONE', #288, #287, #330, .T. ) ;
#36 = EDGE_CURVE ( 'NONE', #279, #290, #324, .T. ) ;
#37 = EDGE_CURVE ( 'NONE', #278, #286, #321, .T. ) ;
#38 = EDGE_CURVE ( 'NONE', #290, #287, #298, .T. ) ;
#39 = EDGE_CURVE ( 'NONE', #280, #288, #297, .T. ) ;
#40 = EDGE_CURVE ( 'NONE', #285, #234, #300, .T. ) ;
#41 = EDGE_CURVE ( 'NONE', #282, #280, #227, .T. ) ;
#42 = EDGE_CURVE ( 'NONE', #290, #282, #226, .T. ) ;
#43 = PRODUCT_RELATED_PRODUCT_CATEGORY ( 'part', '', ( #70 ) ) ;
#44 = PRODUCT_DEFINITION_FORMATION_WITH_SPECIFIED_SOURCE ( 'TUTTO', '', #70, .NOT_KNOWN. ) ;
#45 = PRESENTATION_LAYER_ASSIGNMENT (  '', '', ( #67 ) ) ;
#46 = AXIS2_PLACEMENT_3D ( 'NONE', #126, #125, #124 ) ;
#47 = PRODUCT_DEFINITION ( 'NON CONOSCIUTO', '', #44, #201 ) ;
#48 = AXIS2_PLACEMENT_3D ( 'NONE', #159, #140, #139 ) ;
#49 =( GEOMETRIC_REPRESENTATION_CONTEXT ( 3 ) GLOBAL_UNCERTAINTY_ASSIGNED_CONTEXT ( ( #205 ) ) GLOBAL_UNIT_ASSIGNED_CONTEXT ( ( #147, #146, #144 ) ) REPRESENTATION_CONTEXT ( 'NONE', 'WORKASPACE' ) );
#50 = EDGE_CURVE ( 'NONE', #284, #282, #225, .T. ) ;
#51 = EDGE_CURVE ( 'NONE', #286, #278, #328, .T. ) ;
#52 = AXIS2_PLACEMENT_3D ( 'NONE', #189, #188, #185 ) ;
#53 = AXIS2_PLACEMENT_3D ( 'NONE', #118, #71, #112 ) ;
#54 = EDGE_CURVE ( 'NONE', #289, #284, #222, .T. ) ;
#55 = EDGE_CURVE ( 'NONE', #281, #283, #221, .T. ) ;
#56 = AXIS2_PLACEMENT_3D ( 'NONE', #92, #94, #93 ) ;
#57 = AXIS2_PLACEMENT_3D ( 'NONE', #101, #100, #99 ) ;
#58 = MECHANICAL_DESIGN_GEOMETRIC_PRESENTATION_REPRESENTATION (  '', ( #68 ), #49 ) ;
#59 = AXIS2_PLACEMENT_3D ( 'NONE', #90, #95, #91 ) ;
#60 = PRESENTATION_LAYER_ASSIGNMENT (  '', '', ( #68 ) ) ;
#61 = AXIS2_PLACEMENT_3D ( 'NONE', #108, #105, #85 ) ;
#62 = AXIS2_PLACEMENT_3D ( 'NONE', #168, #178, #170 ) ;
#63 = AXIS2_PLACEMENT_3D ( 'NONE', #98, #97, #96 ) ;
#64 = AXIS2_PLACEMENT_3D ( 'NONE', #103, #104, #102 ) ;
#65 = AXIS2_PLACEMENT_3D ( 'NONE', #191, #187, #186 ) ;
#66 = AXIS2_PLACEMENT_3D ( 'NONE', #113, #106, #84 ) ;
#67 = STYLED_ITEM ( 'NONE', ( #235 ), #204 ) ;
#68 = STYLED_ITEM ( 'NONE', ( #334 ), #206 ) ;
#69 = MECHANICAL_DESIGN_GEOMETRIC_PRESENTATION_REPRESENTATION (  '', ( #67 ), #12 ) ;
#70 = PRODUCT ( '107400002X400A', '107400002X400A', '', ( #137 ) ) ;
#71 = DIRECTION ( 'NONE',  ( 1.355252715606880500E-016, 1.000000000000000000, -0.0000000000000000000 ) ) ;
#72 = CARTESIAN_POINT ( 'NONE',  ( 0.0000000000000000000, 0.0000000000000000000, 0.0000000000000000000 ) ) ;
#73 = DIRECTION ( 'NONE',  ( 0.0000000000000000000, 1.000000000000000000, 0.0000000000000000000 ) ) ;
#74 = DIRECTION ( 'NONE',  ( -0.0000000000000000000, -1.000000000000000000, -0.0000000000000000000 ) ) ;
#75 = DIRECTION ( 'NONE',  ( 0.0000000000000000000, 0.0000000000000000000, 1.000000000000000000 ) ) ;
#76 = CARTESIAN_POINT ( 'NONE',  ( 0.0000000000000000000, 0.0000000000000000000, 3.000000000000000000 ) ) ;
#77 = CARTESIAN_POINT ( 'NONE',  ( -6.817867234779822100E-030, 6.499999999999950300, 0.0000000000000000000 ) ) ;
#78 = DIRECTION ( 'NONE',  ( 1.355252715606880500E-016, 1.000000000000000000, -0.0000000000000000000 ) ) ;
#79 = DIRECTION ( 'NONE',  ( 1.000000000000000000, -2.710505431213746800E-016, 0.0000000000000000000 ) ) ;
#80 = CARTESIAN_POINT ( 'NONE',  ( 3.673940397442059900E-016, 0.0000000000000000000, -3.000000000000000000 ) ) ;
#81 = DIRECTION ( 'NONE',  ( 3.784366730072968700E-017, 0.9510565163047363100, -0.3090169943454546500 ) ) ;
#82 = DIRECTION ( 'NONE',  ( 0.0000000000000000000, 1.000000000000000000, 0.0000000000000000000 ) ) ;
#83 = PLANE ( 'NONE',  #61 ) ;
#84 = DIRECTION ( 'NONE',  ( 1.000000000000000000, 0.0000000000000000000, 0.0000000000000000000 ) ) ;
#85 = DIRECTION ( 'NONE',  ( 0.0000000000000000000, 0.0000000000000000000, 1.000000000000000000 ) ) ;
#86 = DIRECTION ( 'NONE',  ( 0.0000000000000000000, 0.0000000000000000000, 1.000000000000000000 ) ) ;
#87 = DIRECTION ( 'NONE',  ( 1.000000000000000000, 0.0000000000000000000, 0.0000000000000000000 ) ) ;
#88 = CARTESIAN_POINT ( 'NONE',  ( 0.0000000000000000000, 0.0000000000000000000, 0.0000000000000000000 ) ) ;
#89 = PLANE ( 'NONE',  #56 ) ;
#90 = CARTESIAN_POINT ( 'NONE',  ( 0.0000000000000000000, 0.0000000000000000000, 0.0000000000000000000 ) ) ;
#91 = DIRECTION ( 'NONE',  ( 0.0000000000000000000, 0.0000000000000000000, 1.000000000000000000 ) ) ;
#92 = CARTESIAN_POINT ( 'NONE',  ( -3.238400000000000400, 0.0000000000000000000, 3.238400000000000400 ) ) ;
#93 = DIRECTION ( 'NONE',  ( 0.0000000000000000000, 0.0000000000000000000, -1.000000000000000000 ) ) ;
#94 = DIRECTION ( 'NONE',  ( 0.0000000000000000000, -1.000000000000000000, 0.0000000000000000000 ) ) ;
#95 = DIRECTION ( 'NONE',  ( 0.0000000000000000000, 1.000000000000000000, 0.0000000000000000000 ) ) ;
#96 = DIRECTION ( 'NONE',  ( 0.0000000000000000000, 0.0000000000000000000, -1.000000000000000000 ) ) ;
#97 = DIRECTION ( 'NONE',  ( 0.0000000000000000000, -1.000000000000000000, 0.0000000000000000000 ) ) ;
#98 = CARTESIAN_POINT ( 'NONE',  ( 0.0000000000000000000, 4.037853170000000000, 0.0000000000000000000 ) ) ;
#99 = DIRECTION ( 'NONE',  ( 0.0000000000000000000, 0.0000000000000000000, 1.000000000000000000 ) ) ;
#100 = DIRECTION ( 'NONE',  ( -0.0000000000000000000, 1.000000000000000000, 0.0000000000000000000 ) ) ;
#101 = CARTESIAN_POINT ( 'NONE',  ( 0.0000000000000000000, 0.0000000000000000000, 0.0000000000000000000 ) ) ;
#102 = DIRECTION ( 'NONE',  ( 0.0000000000000000000, 0.0000000000000000000, -1.000000000000000000 ) ) ;
#103 = CARTESIAN_POINT ( 'NONE',  ( 0.0000000000000000000, 4.037853170000000000, 0.0000000000000000000 ) ) ;
#104 = DIRECTION ( 'NONE',  ( 0.0000000000000000000, -1.000000000000000000, 0.0000000000000000000 ) ) ;
#105 = DIRECTION ( 'NONE',  ( 0.0000000000000000000, 1.000000000000000000, 0.0000000000000000000 ) ) ;
#106 = DIRECTION ( 'NONE',  ( -1.355252715606880500E-016, -1.000000000000000000, 0.0000000000000000000 ) ) ;
#107 = DIRECTION ( 'NONE',  ( 0.0000000000000000000, 1.000000000000000000, 0.0000000000000000000 ) ) ;
#108 = CARTESIAN_POINT ( 'NONE',  ( -3.238400000000000400, 6.500000000000000900, -3.238400000000000400 ) ) ;
#109 = DIRECTION ( 'NONE',  ( 0.0000000000000000000, 0.0000000000000000000, 1.000000000000000000 ) ) ;
#110 = CARTESIAN_POINT ( 'NONE',  ( 0.0000000000000000000, 0.0000000000000000000, 0.0000000000000000000 ) ) ;
#111 = DIRECTION ( 'NONE',  ( -0.0000000000000000000, 1.000000000000000000, 0.0000000000000000000 ) ) ;
#112 = DIRECTION ( 'NONE',  ( 1.000000000000000000, -2.710505431213746800E-016, 0.0000000000000000000 ) ) ;
#113 = CARTESIAN_POINT ( 'NONE',  ( 0.0000000000000000000, 6.500000000000000900, 0.0000000000000000000 ) ) ;
#114 = DIRECTION ( 'NONE',  ( -0.3090169943454546500, -0.9510565163047363100, 3.784366730072966300E-017 ) ) ;
#115 = CARTESIAN_POINT ( 'NONE',  ( 0.0000000000000000000, 6.500000000000000900, 0.0000000000000000000 ) ) ;
#116 = CARTESIAN_POINT ( 'NONE',  ( 0.0000000000000000000, 0.0000000000000000000, 3.200000000000000200 ) ) ;
#117 = DIRECTION ( 'NONE',  ( 0.0000000000000000000, 2.471980953266950100E-014, 1.000000000000000000 ) ) ;
#118 = CARTESIAN_POINT ( 'NONE',  ( -6.817867234779822100E-030, 6.499999999999950300, 0.0000000000000000000 ) ) ;
#119 = CARTESIAN_POINT ( 'NONE',  ( 0.0000000000000000000, 6.500000000000000900, 3.000000000000000000 ) ) ;
#120 = DIRECTION ( 'NONE',  ( 0.0000000000000000000, 1.000000000000000000, 0.0000000000000000000 ) ) ;
#121 = FILL_AREA_STYLE_COLOUR ( '', #224 ) ;
#122 = CARTESIAN_POINT ( 'NONE',  ( 0.0000000000000000000, 6.500000000000000900, 0.0000000000000000000 ) ) ;
#123 = DIRECTION ( 'NONE',  ( 0.0000000000000000000, 0.0000000000000000000, 1.000000000000000000 ) ) ;
#124 = DIRECTION ( 'NONE',  ( 0.0000000000000000000, -1.235990476633475100E-014, -1.000000000000000000 ) ) ;
#125 = DIRECTION ( 'NONE',  ( 0.0000000000000000000, -1.000000000000000000, 0.0000000000000000000 ) ) ;
#126 = CARTESIAN_POINT ( 'NONE',  ( 0.0000000000000000000, 4.037853170000049700, 0.0000000000000000000 ) ) ;
#127 = CARTESIAN_POINT ( 'NONE',  ( 3.918869757271530500E-016, 0.0000000000000000000, -3.200000000000000200 ) ) ;
#128 = DIRECTION ( 'NONE',  ( 0.0000000000000000000, -1.235990476633475100E-014, -1.000000000000000000 ) ) ;
#129 = DIRECTION ( 'NONE',  ( 0.0000000000000000000, -1.000000000000000000, 0.0000000000000000000 ) ) ;
#130 = CARTESIAN_POINT ( 'NONE',  ( 0.0000000000000000000, 4.037853170000049700, 0.0000000000000000000 ) ) ;
#131 = DIRECTION ( 'NONE',  ( 0.0000000000000000000, 1.000000000000000000, 0.0000000000000000000 ) ) ;
#132 = DIRECTION ( 'NONE',  ( 0.0000000000000000000, 0.0000000000000000000, 1.000000000000000000 ) ) ;
#133 = DIRECTION ( 'NONE',  ( 0.3090169943454544900, -0.9510565163047364200, 0.0000000000000000000 ) ) ;
#134 = CARTESIAN_POINT ( 'NONE',  ( 3.200000000000000200, 6.500000000000000900, 0.0000000000000000000 ) ) ;
#135 = APPLICATION_PROTOCOL_DEFINITION ( 'draft international standard', 'automotive_design', 1998, #136 ) ;
#136 = APPLICATION_CONTEXT ( 'automotive_design' ) ;
#137 = PRODUCT_CONTEXT ( 'NONE', #153, 'mechanical' ) ;
#138 = DIRECTION ( 'NONE',  ( 0.0000000000000000000, -1.000000000000000000, -0.0000000000000000000 ) ) ;
#139 = DIRECTION ( 'NONE',  ( 1.000000000000000000, 0.0000000000000000000, 0.0000000000000000000 ) ) ;
#140 = DIRECTION ( 'NONE',  ( 0.0000000000000000000, 0.0000000000000000000, 1.000000000000000000 ) ) ;
#141 = CARTESIAN_POINT ( 'NONE',  ( 0.0000000000000000000, 0.0000000000000000000, 0.0000000000000000000 ) ) ;
#142 = DIRECTION ( 'NONE',  ( 0.0000000000000000000, -1.235990476633475100E-014, -1.000000000000000000 ) ) ;
#143 = DIRECTION ( 'NONE',  ( 0.0000000000000000000, -1.000000000000000000, 0.0000000000000000000 ) ) ;
#144 =( NAMED_UNIT ( * ) SI_UNIT ( $, .STERADIAN. ) SOLID_ANGLE_UNIT ( ) );
#145 = CARTESIAN_POINT ( 'NONE',  ( 4.898587196589412800E-016, 4.037853170000000000, 4.000000000000000000 ) ) ;
#146 =( NAMED_UNIT ( * ) PLANE_ANGLE_UNIT ( ) SI_UNIT ( $, .RADIAN. ) );
#147 =( LENGTH_UNIT ( ) NAMED_UNIT ( * ) SI_UNIT ( .MILLI., .METRE. ) );
#148 = SURFACE_STYLE_USAGE ( .BOTH. , #149 ) ;
#149 = SURFACE_SIDE_STYLE ('',( #333 ) ) ;
#150 = DIRECTION ( 'NONE',  ( 0.0000000000000000000, 0.0000000000000000000, 1.000000000000000000 ) ) ;
#151 = CARTESIAN_POINT ( 'NONE',  ( 0.0000000000000000000, 6.500000000000000900, 0.0000000000000000000 ) ) ;
#152 = FILL_AREA_STYLE ('',( #160 ) ) ;
#153 = APPLICATION_CONTEXT ( 'automotive_design' ) ;
#154 = APPLICATION_PROTOCOL_DEFINITION ( 'draft international standard', 'automotive_design', 1998, #153 ) ;
#155 =( NAMED_UNIT ( * ) SI_UNIT ( $, .STERADIAN. ) SOLID_ANGLE_UNIT ( ) );
#156 =( NAMED_UNIT ( * ) PLANE_ANGLE_UNIT ( ) SI_UNIT ( $, .RADIAN. ) );
#157 = DIRECTION ( 'NONE',  ( 0.0000000000000000000, -1.235990476633475100E-014, -1.000000000000000000 ) ) ;
#158 =( LENGTH_UNIT ( ) NAMED_UNIT ( * ) SI_UNIT ( .MILLI., .METRE. ) );
#159 = CARTESIAN_POINT ( 'NONE',  ( 0.0000000000000000000, 0.0000000000000000000, 0.0000000000000000000 ) ) ;
#160 = FILL_AREA_STYLE_COLOUR ( '', #331 ) ;
#161 = DIRECTION ( 'NONE',  ( 0.0000000000000000000, -1.000000000000000000, 0.0000000000000000000 ) ) ;
#162 = CARTESIAN_POINT ( 'NONE',  ( 0.0000000000000000000, 4.037853170000000000, -4.000000000000000000 ) ) ;
#163 = CARTESIAN_POINT ( 'NONE',  ( -3.200000000000016600, 6.499999999999951200, 4.408728476930481500E-016 ) ) ;
#164 = CARTESIAN_POINT ( 'NONE',  ( 4.898587196589412800E-016, 2.462146829999900500, 4.000000000000000000 ) ) ;
#165 = CARTESIAN_POINT ( 'NONE',  ( 0.0000000000000000000, 2.462146829999900500, -4.000000000000000000 ) ) ;
#166 = CARTESIAN_POINT ( 'NONE',  ( 3.673940397442059900E-016, 6.500000000000000900, -3.000000000000000000 ) ) ;
#167 = CARTESIAN_POINT ( 'NONE',  ( 0.0000000000000000000, 4.037853170000049700, 0.0000000000000000000 ) ) ;
#168 = CARTESIAN_POINT ( 'NONE',  ( 0.0000000000000000000, 2.462146829999900500, 0.0000000000000000000 ) ) ;
#169 = DIRECTION ( 'NONE',  ( 0.0000000000000000000, -1.000000000000000000, 0.0000000000000000000 ) ) ;
#170 = DIRECTION ( 'NONE',  ( 0.0000000000000000000, 2.471980953266950100E-014, 1.000000000000000000 ) ) ;
#171 = CARTESIAN_POINT ( 'NONE',  ( 0.0000000000000000000, 4.037853170000000000, -4.000000000000000000 ) ) ;
#172 = CARTESIAN_POINT ( 'NONE',  ( 4.408728476930471200E-016, 0.0000000000000000000, -3.200000000000000200 ) ) ;
#173 = CARTESIAN_POINT ( 'NONE',  ( 3.673940397442059900E-016, 0.0000000000000000000, -3.000000000000000000 ) ) ;
#174 = CARTESIAN_POINT ( 'NONE',  ( 0.0000000000000000000, 0.0000000000000000000, 3.000000000000000000 ) ) ;
#175 = CARTESIAN_POINT ( 'NONE',  ( -3.999999999999984500, 4.037853170000049700, 4.898587196589393100E-016 ) ) ;
#176 = CARTESIAN_POINT ( 'NONE',  ( 3.200000000000016600, 6.499999999999949400, 0.0000000000000000000 ) ) ;
#177 = DIRECTION ( 'NONE',  ( 0.0000000000000000000, 1.000000000000000000, 0.0000000000000000000 ) ) ;
#178 = DIRECTION ( 'NONE',  ( 0.0000000000000000000, 1.000000000000000000, 0.0000000000000000000 ) ) ;
#179 = CARTESIAN_POINT ( 'NONE',  ( 3.999999999999983600, 4.037853170000049700, 0.0000000000000000000 ) ) ;
#180 =( NAMED_UNIT ( * ) SI_UNIT ( $, .STERADIAN. ) SOLID_ANGLE_UNIT ( ) );
#181 =( NAMED_UNIT ( * ) PLANE_ANGLE_UNIT ( ) SI_UNIT ( $, .RADIAN. ) );
#182 =( LENGTH_UNIT ( ) NAMED_UNIT ( * ) SI_UNIT ( .MILLI., .METRE. ) );
#183 = SURFACE_STYLE_USAGE ( .BOTH. , #184 ) ;
#184 = SURFACE_SIDE_STYLE ('',( #220 ) ) ;
#185 = DIRECTION ( 'NONE',  ( 0.0000000000000000000, 0.0000000000000000000, 1.000000000000000000 ) ) ;
#186 = DIRECTION ( 'NONE',  ( 0.0000000000000000000, 0.0000000000000000000, 1.000000000000000000 ) ) ;
#187 = DIRECTION ( 'NONE',  ( 0.0000000000000000000, -1.000000000000000000, -0.0000000000000000000 ) ) ;
#188 = DIRECTION ( 'NONE',  ( -0.0000000000000000000, -1.000000000000000000, -0.0000000000000000000 ) ) ;
#189 = CARTESIAN_POINT ( 'NONE',  ( 0.0000000000000000000, 0.0000000000000000000, 0.0000000000000000000 ) ) ;
#190 = CARTESIAN_POINT ( 'NONE',  ( 4.898587196589412800E-016, 4.037853170000049700, 4.000000000000000000 ) ) ;
#191 = CARTESIAN_POINT ( 'NONE',  ( 0.0000000000000000000, 0.0000000000000000000, 0.0000000000000000000 ) ) ;
#192 = FILL_AREA_STYLE ('',( #121 ) ) ;
#193 = CARTESIAN_POINT ( 'NONE',  ( 0.0000000000000000000, 4.037853170000049700, 0.0000000000000000000 ) ) ;
#194 = CARTESIAN_POINT ( 'NONE',  ( -3.200000000000000200, 6.500000000000000900, 3.918869757271530500E-016 ) ) ;
#195 = CARTESIAN_POINT ( 'NONE',  ( 0.0000000000000000000, 2.462146829999900500, 0.0000000000000000000 ) ) ;
#196 = DIRECTION ( 'NONE',  ( 0.0000000000000000000, 0.9510565163047363100, 0.3090169943454546500 ) ) ;
#197 = DIRECTION ( 'NONE',  ( 0.0000000000000000000, -1.000000000000000000, 0.0000000000000000000 ) ) ;
#198 = DIRECTION ( 'NONE',  ( -1.355252715606880500E-016, -1.000000000000000000, 0.0000000000000000000 ) ) ;
#199 = CARTESIAN_POINT ( 'NONE',  ( 0.0000000000000000000, 0.0000000000000000000, 3.200000000000000200 ) ) ;
#200 = PRODUCT_DEFINITION_SHAPE ( 'NONE', 'NONE',  #47 ) ;
#201 = PRODUCT_DEFINITION_CONTEXT ( 'detailed design', #136, 'design' ) ;
#202 = UNCERTAINTY_MEASURE_WITH_UNIT (LENGTH_MEASURE( 1.000000000000000100E-005 ), #158, 'distance_accuracy_value', 'NONE');
#203 = UNCERTAINTY_MEASURE_WITH_UNIT (LENGTH_MEASURE( 1.000000000000000100E-005 ), #182, 'distance_accuracy_value', 'NONE');
#204 = MANIFOLD_SOLID_BREP ( 'Importato1', #311 ) ;
#205 = UNCERTAINTY_MEASURE_WITH_UNIT (LENGTH_MEASURE( 1.000000000000000100E-005 ), #147, 'distance_accuracy_value', 'NONE');
#206 = ADVANCED_BREP_SHAPE_REPRESENTATION ( '107400002X400A', ( #204, #48 ), #13 ) ;
#207 = ORIENTED_EDGE ( 'NONE', *, *, #50, .F. ) ;
#208 = ORIENTED_EDGE ( 'NONE', *, *, #55, .T. ) ;
#209 = ORIENTED_EDGE ( 'NONE', *, *, #33, .F. ) ;
#210 = ORIENTED_EDGE ( 'NONE', *, *, #40, .F. ) ;
#211 = ORIENTED_EDGE ( 'NONE', *, *, #34, .T. ) ;
#212 = ORIENTED_EDGE ( 'NONE', *, *, #36, .F. ) ;
#213 = ORIENTED_EDGE ( 'NONE', *, *, #55, .F. ) ;
#214 = ORIENTED_EDGE ( 'NONE', *, *, #50, .T. ) ;
#215 = ORIENTED_EDGE ( 'NONE', *, *, #42, .F. ) ;
#216 = ORIENTED_EDGE ( 'NONE', *, *, #30, .F. ) ;
#217 = ORIENTED_EDGE ( 'NONE', *, *, #15, .F. ) ;
#218 = ORIENTED_EDGE ( 'NONE', *, *, #33, .T. ) ;
#219 = ORIENTED_EDGE ( 'NONE', *, *, #31, .F. ) ;
#220 = SURFACE_STYLE_FILL_AREA ( #192 ) ;
#221 = CIRCLE ( 'NONE', #52, 3.000000000000000000 ) ;
#222 = CIRCLE ( 'NONE', #53, 3.200000000000016600 ) ;
#223 = VECTOR ( 'NONE', #133, 1000.000000000000000 ) ;
#224 = COLOUR_RGB ( '',0.9882352941176471000, 0.8705882352941176600, 0.5490196078431373000 ) ;
#225 = LINE ( 'NONE', #134, #223 ) ;
#226 = CIRCLE ( 'NONE', #46, 4.000000000000000000 ) ;
#227 = CIRCLE ( 'NONE', #27, 4.000000000000000000 ) ;
#228 = VECTOR ( 'NONE', #143, 1000.000000000000000 ) ;
#229 = CIRCLE ( 'NONE', #65, 3.200000000000000200 ) ;
#230 = VECTOR ( 'NONE', #81, 1000.000000000000200 ) ;
#231 = ORIENTED_EDGE ( 'NONE', *, *, #37, .T. ) ;
#232 = ORIENTED_EDGE ( 'NONE', *, *, #41, .F. ) ;
#233 = ORIENTED_EDGE ( 'NONE', *, *, #32, .F. ) ;
#234 = VERTEX_POINT ( 'NONE', #116 ) ;
#235 = PRESENTATION_STYLE_ASSIGNMENT (( #183 ) ) ;
#236 = VECTOR ( 'NONE', #114, 1000.000000000000100 ) ;
#237 = LINE ( 'NONE', #199, #325 ) ;
#238 = CIRCLE ( 'NONE', #23, 4.000000000000000000 ) ;
#239 = VECTOR ( 'NONE', #82, 1000.000000000000000 ) ;
#240 = LINE ( 'NONE', #194, #236 ) ;
#241 = CONICAL_SURFACE ( 'NONE', #16, 3.200000000000000200, 0.3141592653279687300 ) ;
#242 = CIRCLE ( 'NONE', #19, 3.000000000000000000 ) ;
#243 = CONICAL_SURFACE ( 'NONE', #66, 3.200000000000000200, 0.3141592653279687300 ) ;
#244 = VECTOR ( 'NONE', #73, 1000.000000000000000 ) ;
#245 = CONICAL_SURFACE ( 'NONE', #14, 3.200000000000000200, 0.3141592653279688400 ) ;
#246 = FACE_OUTER_BOUND ( 'NONE', #267, .T. ) ;
#247 = CIRCLE ( 'NONE', #20, 4.000000000000000000 ) ;
#248 = LINE ( 'NONE', #80, #239 ) ;
#249 = CYLINDRICAL_SURFACE ( 'NONE', #17, 3.000000000000000000 ) ;
#250 = FACE_OUTER_BOUND ( 'NONE', #266, .T. ) ;
#251 = LINE ( 'NONE', #76, #244 ) ;
#252 = FACE_OUTER_BOUND ( 'NONE', #273, .T. ) ;
#253 = CONICAL_SURFACE ( 'NONE', #57, 3.200000000000000200, 0.3141592653279688400 ) ;
#254 = FACE_BOUND ( 'NONE', #270, .T. ) ;
#255 = FACE_OUTER_BOUND ( 'NONE', #268, .T. ) ;
#256 = CIRCLE ( 'NONE', #21, 3.200000000000016600 ) ;
#257 = CYLINDRICAL_SURFACE ( 'NONE', #63, 4.000000000000000000 ) ;
#258 = FACE_OUTER_BOUND ( 'NONE', #271, .T. ) ;
#259 = CYLINDRICAL_SURFACE ( 'NONE', #59, 3.000000000000000000 ) ;
#260 = FACE_OUTER_BOUND ( 'NONE', #275, .T. ) ;
#261 = FACE_OUTER_BOUND ( 'NONE', #269, .T. ) ;
#262 = FACE_OUTER_BOUND ( 'NONE', #276, .T. ) ;
#263 = CYLINDRICAL_SURFACE ( 'NONE', #64, 4.000000000000000000 ) ;
#264 = FACE_OUTER_BOUND ( 'NONE', #272, .T. ) ;
#265 = FACE_BOUND ( 'NONE', #277, .T. ) ;
#266 = EDGE_LOOP ( 'NONE', ( #216, #217, #214, #215, #212 ) ) ;
#267 = EDGE_LOOP ( 'NONE', ( #303, #306, #308, #232, #207 ) ) ;
#268 = EDGE_LOOP ( 'NONE', ( #210, #307, #309, #209 ) ) ;
#269 = EDGE_LOOP ( 'NONE', ( #208, #326, #320, #313 ) ) ;
#270 = EDGE_LOOP ( 'NONE', ( #304, #295 ) ) ;
#271 = EDGE_LOOP ( 'NONE', ( #317, #327, #316, #322, #329 ) ) ;
#272 = EDGE_LOOP ( 'NONE', ( #294, #291, #292, #231 ) ) ;
#273 = EDGE_LOOP ( 'NONE', ( #296, #293 ) ) ;
#274 = EDGE_LOOP ( 'NONE', ( #211, #305 ) ) ;
#275 = EDGE_LOOP ( 'NONE', ( #233, #301, #218, #219 ) ) ;
#276 = EDGE_LOOP ( 'NONE', ( #312, #315, #318, #310, #319 ) ) ;
#277 = EDGE_LOOP ( 'NONE', ( #213, #302 ) ) ;
#278 = VERTEX_POINT ( 'NONE', #119 ) ;
#279 = VERTEX_POINT ( 'NONE', #175 ) ;
#280 = VERTEX_POINT ( 'NONE', #190 ) ;
#281 = VERTEX_POINT ( 'NONE', #174 ) ;
#282 = VERTEX_POINT ( 'NONE', #179 ) ;
#283 = VERTEX_POINT ( 'NONE', #173 ) ;
#284 = VERTEX_POINT ( 'NONE', #176 ) ;
#285 = VERTEX_POINT ( 'NONE', #172 ) ;
#286 = VERTEX_POINT ( 'NONE', #166 ) ;
#287 = VERTEX_POINT ( 'NONE', #165 ) ;
#288 = VERTEX_POINT ( 'NONE', #164 ) ;
#289 = VERTEX_POINT ( 'NONE', #163 ) ;
#290 = VERTEX_POINT ( 'NONE', #162 ) ;
#291 = ORIENTED_EDGE ( 'NONE', *, *, #11, .T. ) ;
#292 = ORIENTED_EDGE ( 'NONE', *, *, #18, .T. ) ;
#293 = ORIENTED_EDGE ( 'NONE', *, *, #54, .T. ) ;
#294 = ORIENTED_EDGE ( 'NONE', *, *, #22, .F. ) ;
#295 = ORIENTED_EDGE ( 'NONE', *, *, #51, .F. ) ;
#296 = ORIENTED_EDGE ( 'NONE', *, *, #15, .T. ) ;
#297 = LINE ( 'NONE', #145, #228 ) ;
#298 = LINE ( 'NONE', #171, #299 ) ;
#299 = VECTOR ( 'NONE', #169, 1000.000000000000000 ) ;
#300 = CIRCLE ( 'NONE', #25, 3.200000000000000200 ) ;
#301 = ORIENTED_EDGE ( 'NONE', *, *, #34, .F. ) ;
#302 = ORIENTED_EDGE ( 'NONE', *, *, #11, .F. ) ;
#303 = ORIENTED_EDGE ( 'NONE', *, *, #54, .F. ) ;
#304 = ORIENTED_EDGE ( 'NONE', *, *, #37, .F. ) ;
#305 = ORIENTED_EDGE ( 'NONE', *, *, #40, .T. ) ;
#306 = ORIENTED_EDGE ( 'NONE', *, *, #30, .T. ) ;
#307 = ORIENTED_EDGE ( 'NONE', *, *, #32, .T. ) ;
#308 = ORIENTED_EDGE ( 'NONE', *, *, #29, .F. ) ;
#309 = ORIENTED_EDGE ( 'NONE', *, *, #35, .F. ) ;
#310 = ORIENTED_EDGE ( 'NONE', *, *, #35, .T. ) ;
#311 = CLOSED_SHELL ( 'NONE', ( #7, #10, #8, #3, #2, #6, #1, #9, #4, #5 ) ) ;
#312 = ORIENTED_EDGE ( 'NONE', *, *, #42, .T. ) ;
#313 = ORIENTED_EDGE ( 'NONE', *, *, #18, .F. ) ;
#314 = FACE_OUTER_BOUND ( 'NONE', #274, .T. ) ;
#315 = ORIENTED_EDGE ( 'NONE', *, *, #41, .T. ) ;
#316 = ORIENTED_EDGE ( 'NONE', *, *, #36, .T. ) ;
#317 = ORIENTED_EDGE ( 'NONE', *, *, #39, .F. ) ;
#318 = ORIENTED_EDGE ( 'NONE', *, *, #39, .T. ) ;
#319 = ORIENTED_EDGE ( 'NONE', *, *, #38, .F. ) ;
#320 = ORIENTED_EDGE ( 'NONE', *, *, #51, .T. ) ;
#321 = CIRCLE ( 'NONE', #26, 3.000000000000000000 ) ;
#322 = ORIENTED_EDGE ( 'NONE', *, *, #38, .T. ) ;
#323 = LINE ( 'NONE', #127, #230 ) ;
#324 = CIRCLE ( 'NONE', #24, 4.000000000000000000 ) ;
#325 = VECTOR ( 'NONE', #196, 1000.000000000000200 ) ;
#326 = ORIENTED_EDGE ( 'NONE', *, *, #22, .T. ) ;
#327 = ORIENTED_EDGE ( 'NONE', *, *, #29, .T. ) ;
#328 = CIRCLE ( 'NONE', #28, 3.000000000000000000 ) ;
#329 = ORIENTED_EDGE ( 'NONE', *, *, #31, .T. ) ;
#330 = CIRCLE ( 'NONE', #62, 4.000000000000000000 ) ;
#331 = COLOUR_RGB ( '',0.9882352941176471000, 0.8705882352941176600, 0.5490196078431373000 ) ;
#332 = SHAPE_DEFINITION_REPRESENTATION ( #200, #206 ) ;
#333 = SURFACE_STYLE_FILL_AREA ( #152 ) ;
#334 = PRESENTATION_STYLE_ASSIGNMENT (( #148 ) ) ;
ENDSEC;
END-ISO-10303-21;
