ISO-10303-21;
HEADER;
FILE_DESCRIPTION (( 'STEP AP214' ),
    '1' );
FILE_NAME ('107600002X400A.STEP',
    '2013-02-25T17:26:14',
    ( '' ),
    ( '' ),
    'SwSTEP 2.0',
    'SolidWorks 2012',
    '' );
FILE_SCHEMA (( 'AUTOMOTIVE_DESIGN' ));
ENDSEC;

DATA;
#1 = ADVANCED_FACE ( 'NONE', ( #127 ), #131, .T. ) ;
#2 = ADVANCED_FACE ( 'NONE', ( #132 ), #156, .T. ) ;
#3 = ADVANCED_FACE ( 'NONE', ( #130 ), #123, .F. ) ;
#4 = ADVANCED_FACE ( 'NONE', ( #128 ), #116, .T. ) ;
#5 = ADVANCED_FACE ( 'NONE', ( #122, #129 ), #241, .T. ) ;
#6 = ADVANCED_FACE ( 'NONE', ( #75 ), #119, .T. ) ;
#7 = ADVANCED_FACE ( 'NONE', ( #125 ), #121, .F. ) ;
#8 = ADVANCED_FACE ( 'NONE', ( #118, #115 ), #221, .T. ) ;
#9 = ADVANCED_FACE ( 'NONE', ( #124 ), #95, .T. ) ;
#10 = ADVANCED_FACE ( 'NONE', ( #126 ), #112, .T. ) ;
#11 = EDGE_CURVE ( 'NONE', #144, #170, #111, .T. ) ;
#12 = AXIS2_PLACEMENT_3D ( 'NONE', #234, #235, #228 ) ;
#13 = EDGE_CURVE ( 'NONE', #141, #178, #93, .T. ) ;
#14 = EDGE_CURVE ( 'NONE', #143, #170, #114, .T. ) ;
#15 = AXIS2_PLACEMENT_3D ( 'NONE', #313, #209, #210 ) ;
#16 = AXIS2_PLACEMENT_3D ( 'NONE', #217, #252, #219 ) ;
#17 = AXIS2_PLACEMENT_3D ( 'NONE', #256, #205, #204 ) ;
#18 = AXIS2_PLACEMENT_3D ( 'NONE', #266, #208, #223 ) ;
#19 = EDGE_CURVE ( 'NONE', #172, #155, #120, .T. ) ;
#20 = EDGE_CURVE ( 'NONE', #170, #144, #113, .T. ) ;
#21 = AXIS2_PLACEMENT_3D ( 'NONE', #257, #267, #258 ) ;
#22 = EDGE_CURVE ( 'NONE', #140, #169, #97, .T. ) ;
#23 = PRODUCT_DEFINITION ( 'NON CONOSCIUTO', '', #25, #67 ) ;
#24 = AXIS2_PLACEMENT_3D ( 'NONE', #292, #291, #290 ) ;
#25 = PRODUCT_DEFINITION_FORMATION_WITH_SPECIFIED_SOURCE ( 'TUTTO', '', #66, .NOT_KNOWN. ) ;
#26 = AXIS2_PLACEMENT_3D ( 'NONE', #200, #207, #224 ) ;
#27 = AXIS2_PLACEMENT_3D ( 'NONE', #248, #249, #250 ) ;
#28 = AXIS2_PLACEMENT_3D ( 'NONE', #247, #222, #246 ) ;
#29 = PRODUCT_RELATED_PRODUCT_CATEGORY ( 'part', '', ( #66 ) ) ;
#30 = AXIS2_PLACEMENT_3D ( 'NONE', #198, #201, #225 ) ;
#31 = AXIS2_PLACEMENT_3D ( 'NONE', #245, #242, #243 ) ;
#32 = AXIS2_PLACEMENT_3D ( 'NONE', #240, #238, #244 ) ;
#33 = AXIS2_PLACEMENT_3D ( 'NONE', #229, #251, #254 ) ;
#34 = EDGE_CURVE ( 'NONE', #153, #140, #98, .T. ) ;
#35 = AXIS2_PLACEMENT_3D ( 'NONE', #218, #262, #195 ) ;
#36 = EDGE_CURVE ( 'NONE', #143, #92, #110, .T. ) ;
#37 = EDGE_CURVE ( 'NONE', #142, #153, #103, .T. ) ;
#38 = EDGE_CURVE ( 'NONE', #142, #169, #102, .T. ) ;
#39 = EDGE_CURVE ( 'NONE', #172, #169, #96, .T. ) ;
#40 = AXIS2_PLACEMENT_3D ( 'NONE', #298, #294, #293 ) ;
#41 = AXIS2_PLACEMENT_3D ( 'NONE', #199, #307, #303 ) ;
#42 = AXIS2_PLACEMENT_3D ( 'NONE', #274, #280, #279 ) ;
#43 = AXIS2_PLACEMENT_3D ( 'NONE', #276, #275, #282 ) ;
#44 = STYLED_ITEM ( 'NONE', ( #161 ), #192 ) ;
#45 = AXIS2_PLACEMENT_3D ( 'NONE', #285, #284, #283 ) ;
#46 = AXIS2_PLACEMENT_3D ( 'NONE', #212, #213, #214 ) ;
#47 = MECHANICAL_DESIGN_GEOMETRIC_PRESENTATION_REPRESENTATION (  '', ( #44 ), #50 ) ;
#48 = PRESENTATION_LAYER_ASSIGNMENT (  '', '', ( #44 ) ) ;
#49 =( GEOMETRIC_REPRESENTATION_CONTEXT ( 3 ) GLOBAL_UNCERTAINTY_ASSIGNED_CONTEXT ( ( #77 ) ) GLOBAL_UNIT_ASSIGNED_CONTEXT ( ( #197, #308, #306 ) ) REPRESENTATION_CONTEXT ( 'NONE', 'WORKASPACE' ) );
#50 =( GEOMETRIC_REPRESENTATION_CONTEXT ( 3 ) GLOBAL_UNCERTAINTY_ASSIGNED_CONTEXT ( ( #117 ) ) GLOBAL_UNIT_ASSIGNED_CONTEXT ( ( #312, #310, #309 ) ) REPRESENTATION_CONTEXT ( 'NONE', 'WORKASPACE' ) );
#51 = STYLED_ITEM ( 'NONE', ( #183 ), #191 ) ;
#52 = EDGE_CURVE ( 'NONE', #169, #140, #101, .T. ) ;
#53 = EDGE_CURVE ( 'NONE', #155, #140, #106, .T. ) ;
#54 = PRESENTATION_LAYER_ASSIGNMENT (  '', '', ( #51 ) ) ;
#55 =( GEOMETRIC_REPRESENTATION_CONTEXT ( 3 ) GLOBAL_UNCERTAINTY_ASSIGNED_CONTEXT ( ( #193 ) ) GLOBAL_UNIT_ASSIGNED_CONTEXT ( ( #297, #296, #295 ) ) REPRESENTATION_CONTEXT ( 'NONE', 'WORKASPACE' ) );
#56 = AXIS2_PLACEMENT_3D ( 'NONE', #231, #233, #232 ) ;
#57 = AXIS2_PLACEMENT_3D ( 'NONE', #237, #239, #236 ) ;
#58 = MECHANICAL_DESIGN_GEOMETRIC_PRESENTATION_REPRESENTATION (  '', ( #51 ), #55 ) ;
#59 = EDGE_CURVE ( 'NONE', #155, #172, #99, .T. ) ;
#60 = EDGE_CURVE ( 'NONE', #141, #153, #104, .T. ) ;
#61 = EDGE_CURVE ( 'NONE', #178, #141, #108, .T. ) ;
#62 = EDGE_CURVE ( 'NONE', #153, #142, #175, .T. ) ;
#63 = EDGE_CURVE ( 'NONE', #92, #143, #173, .T. ) ;
#64 = EDGE_CURVE ( 'NONE', #178, #142, #83, .T. ) ;
#65 = EDGE_CURVE ( 'NONE', #92, #144, #165, .T. ) ;
#66 = PRODUCT ( '107600002X400A', '107600002X400A', '', ( #289 ) ) ;
#67 = PRODUCT_DEFINITION_CONTEXT ( 'detailed design', #288, 'design' ) ;
#68 = PRODUCT_DEFINITION_SHAPE ( 'NONE', 'NONE',  #23 ) ;
#69 = ORIENTED_EDGE ( 'NONE', *, *, #64, .T. ) ;
#70 = ORIENTED_EDGE ( 'NONE', *, *, #14, .T. ) ;
#71 = ORIENTED_EDGE ( 'NONE', *, *, #20, .T. ) ;
#72 = ORIENTED_EDGE ( 'NONE', *, *, #39, .F. ) ;
#73 = ORIENTED_EDGE ( 'NONE', *, *, #39, .T. ) ;
#74 = ORIENTED_EDGE ( 'NONE', *, *, #52, .F. ) ;
#75 = FACE_OUTER_BOUND ( 'NONE', #134, .T. ) ;
#76 = ORIENTED_EDGE ( 'NONE', *, *, #62, .F. ) ;
#77 = UNCERTAINTY_MEASURE_WITH_UNIT (LENGTH_MEASURE( 1.000000000000000100E-005 ), #197, 'distance_accuracy_value', 'NONE');
#78 = ORIENTED_EDGE ( 'NONE', *, *, #59, .F. ) ;
#79 = ORIENTED_EDGE ( 'NONE', *, *, #34, .F. ) ;
#80 = VECTOR ( 'NONE', #281, 1000.000000000000000 ) ;
#81 = ORIENTED_EDGE ( 'NONE', *, *, #64, .F. ) ;
#82 = ORIENTED_EDGE ( 'NONE', *, *, #20, .F. ) ;
#83 = LINE ( 'NONE', #286, #80 ) ;
#84 = ORIENTED_EDGE ( 'NONE', *, *, #34, .T. ) ;
#85 = ORIENTED_EDGE ( 'NONE', *, *, #60, .T. ) ;
#86 = ORIENTED_EDGE ( 'NONE', *, *, #11, .F. ) ;
#87 = ORIENTED_EDGE ( 'NONE', *, *, #65, .F. ) ;
#88 = SURFACE_STYLE_FILL_AREA ( #196 ) ;
#89 = VECTOR ( 'NONE', #272, 1000.000000000000000 ) ;
#90 = ORIENTED_EDGE ( 'NONE', *, *, #60, .F. ) ;
#91 = COLOUR_RGB ( '',0.6470588235294118000, 0.5176470588235293500, 0.0000000000000000000 ) ;
#92 = VERTEX_POINT ( 'NONE', #271 ) ;
#93 = CIRCLE ( 'NONE', #17, 3.200000000000016600 ) ;
#94 = VECTOR ( 'NONE', #226, 1000.000000000000000 ) ;
#95 = CONICAL_SURFACE ( 'NONE', #30, 3.200000000000000200, 0.3141592653279687300 ) ;
#96 = LINE ( 'NONE', #260, #164 ) ;
#97 = CIRCLE ( 'NONE', #46, 4.000000000000000000 ) ;
#98 = LINE ( 'NONE', #211, #109 ) ;
#99 = CIRCLE ( 'NONE', #40, 3.200000000000000200 ) ;
#100 = VECTOR ( 'NONE', #216, 1000.000000000000000 ) ;
#101 = CIRCLE ( 'NONE', #41, 4.000000000000000000 ) ;
#102 = LINE ( 'NONE', #215, #100 ) ;
#103 = CIRCLE ( 'NONE', #35, 4.000000000000000000 ) ;
#104 = LINE ( 'NONE', #300, #166 ) ;
#105 = VECTOR ( 'NONE', #268, 1000.000000000000200 ) ;
#106 = LINE ( 'NONE', #264, #105 ) ;
#107 = COLOUR_RGB ( '',0.6470588235294118000, 0.5176470588235293500, 0.0000000000000000000 ) ;
#108 = CIRCLE ( 'NONE', #45, 3.200000000000016600 ) ;
#109 = VECTOR ( 'NONE', #220, 1000.000000000000000 ) ;
#110 = CIRCLE ( 'NONE', #16, 3.000000000000000000 ) ;
#111 = CIRCLE ( 'NONE', #21, 3.000000000000000000 ) ;
#112 = CONICAL_SURFACE ( 'NONE', #27, 3.200000000000000200, 0.3141592653279688400 ) ;
#113 = CIRCLE ( 'NONE', #15, 3.000000000000000000 ) ;
#114 = LINE ( 'NONE', #202, #94 ) ;
#115 = FACE_OUTER_BOUND ( 'NONE', #154, .T. ) ;
#116 = CONICAL_SURFACE ( 'NONE', #57, 3.200000000000000200, 0.3141592653279688400 ) ;
#117 = UNCERTAINTY_MEASURE_WITH_UNIT (LENGTH_MEASURE( 1.000000000000000100E-005 ), #312, 'distance_accuracy_value', 'NONE');
#118 = FACE_BOUND ( 'NONE', #138, .T. ) ;
#119 = CYLINDRICAL_SURFACE ( 'NONE', #31, 4.000000000000000000 ) ;
#120 = CIRCLE ( 'NONE', #18, 3.200000000000000200 ) ;
#121 = CYLINDRICAL_SURFACE ( 'NONE', #28, 3.000000000000000000 ) ;
#122 = FACE_BOUND ( 'NONE', #137, .T. ) ;
#123 = CYLINDRICAL_SURFACE ( 'NONE', #12, 3.000000000000000000 ) ;
#124 = FACE_OUTER_BOUND ( 'NONE', #133, .T. ) ;
#125 = FACE_OUTER_BOUND ( 'NONE', #159, .T. ) ;
#126 = FACE_OUTER_BOUND ( 'NONE', #158, .T. ) ;
#127 = FACE_OUTER_BOUND ( 'NONE', #139, .T. ) ;
#128 = FACE_OUTER_BOUND ( 'NONE', #177, .T. ) ;
#129 = FACE_OUTER_BOUND ( 'NONE', #136, .T. ) ;
#130 = FACE_OUTER_BOUND ( 'NONE', #176, .T. ) ;
#131 = CONICAL_SURFACE ( 'NONE', #56, 3.200000000000000200, 0.3141592653279687300 ) ;
#132 = FACE_OUTER_BOUND ( 'NONE', #135, .T. ) ;
#133 = EDGE_LOOP ( 'NONE', ( #181, #69, #76, #90 ) ) ;
#134 = EDGE_LOOP ( 'NONE', ( #152, #168, #162, #79 ) ) ;
#135 = EDGE_LOOP ( 'NONE', ( #157, #150, #84, #180 ) ) ;
#136 = EDGE_LOOP ( 'NONE', ( #145, #186 ) ) ;
#137 = EDGE_LOOP ( 'NONE', ( #86, #82 ) ) ;
#138 = EDGE_LOOP ( 'NONE', ( #148, #187 ) ) ;
#139 = EDGE_LOOP ( 'NONE', ( #81, #167, #85, #174 ) ) ;
#140 = VERTEX_POINT ( 'NONE', #230 ) ;
#141 = VERTEX_POINT ( 'NONE', #269 ) ;
#142 = VERTEX_POINT ( 'NONE', #270 ) ;
#143 = VERTEX_POINT ( 'NONE', #263 ) ;
#144 = VERTEX_POINT ( 'NONE', #277 ) ;
#145 = ORIENTED_EDGE ( 'NONE', *, *, #13, .T. ) ;
#146 = ORIENTED_EDGE ( 'NONE', *, *, #11, .T. ) ;
#147 = ORIENTED_EDGE ( 'NONE', *, *, #65, .T. ) ;
#148 = ORIENTED_EDGE ( 'NONE', *, *, #63, .F. ) ;
#149 = ORIENTED_EDGE ( 'NONE', *, *, #36, .T. ) ;
#150 = ORIENTED_EDGE ( 'NONE', *, *, #37, .T. ) ;
#151 = CLOSED_SHELL ( 'NONE', ( #7, #9, #4, #6, #3, #5, #8, #1, #10, #2 ) ) ;
#152 = ORIENTED_EDGE ( 'NONE', *, *, #62, .T. ) ;
#153 = VERTEX_POINT ( 'NONE', #259 ) ;
#154 = EDGE_LOOP ( 'NONE', ( #179, #190 ) ) ;
#155 = VERTEX_POINT ( 'NONE', #255 ) ;
#156 = CYLINDRICAL_SURFACE ( 'NONE', #33, 4.000000000000000000 ) ;
#157 = ORIENTED_EDGE ( 'NONE', *, *, #38, .F. ) ;
#158 = EDGE_LOOP ( 'NONE', ( #188, #171, #73, #160 ) ) ;
#159 = EDGE_LOOP ( 'NONE', ( #184, #70, #71, #87 ) ) ;
#160 = ORIENTED_EDGE ( 'NONE', *, *, #22, .F. ) ;
#161 = PRESENTATION_STYLE_ASSIGNMENT (( #314 ) ) ;
#162 = ORIENTED_EDGE ( 'NONE', *, *, #52, .T. ) ;
#163 = SURFACE_STYLE_FILL_AREA ( #302 ) ;
#164 = VECTOR ( 'NONE', #265, 1000.000000000000200 ) ;
#165 = LINE ( 'NONE', #278, #89 ) ;
#166 = VECTOR ( 'NONE', #311, 1000.000000000000100 ) ;
#167 = ORIENTED_EDGE ( 'NONE', *, *, #13, .F. ) ;
#168 = ORIENTED_EDGE ( 'NONE', *, *, #38, .T. ) ;
#169 = VERTEX_POINT ( 'NONE', #227 ) ;
#170 = VERTEX_POINT ( 'NONE', #253 ) ;
#171 = ORIENTED_EDGE ( 'NONE', *, *, #19, .F. ) ;
#172 = VERTEX_POINT ( 'NONE', #261 ) ;
#173 = CIRCLE ( 'NONE', #43, 3.000000000000000000 ) ;
#174 = ORIENTED_EDGE ( 'NONE', *, *, #37, .F. ) ;
#175 = CIRCLE ( 'NONE', #42, 4.000000000000000000 ) ;
#176 = EDGE_LOOP ( 'NONE', ( #189, #149, #147, #146 ) ) ;
#177 = EDGE_LOOP ( 'NONE', ( #78, #182, #74, #72 ) ) ;
#178 = VERTEX_POINT ( 'NONE', #206 ) ;
#179 = ORIENTED_EDGE ( 'NONE', *, *, #19, .T. ) ;
#180 = ORIENTED_EDGE ( 'NONE', *, *, #22, .T. ) ;
#181 = ORIENTED_EDGE ( 'NONE', *, *, #61, .F. ) ;
#182 = ORIENTED_EDGE ( 'NONE', *, *, #53, .T. ) ;
#183 = PRESENTATION_STYLE_ASSIGNMENT (( #299 ) ) ;
#184 = ORIENTED_EDGE ( 'NONE', *, *, #63, .T. ) ;
#185 = SHAPE_DEFINITION_REPRESENTATION ( #68, #191 ) ;
#186 = ORIENTED_EDGE ( 'NONE', *, *, #61, .T. ) ;
#187 = ORIENTED_EDGE ( 'NONE', *, *, #36, .F. ) ;
#188 = ORIENTED_EDGE ( 'NONE', *, *, #53, .F. ) ;
#189 = ORIENTED_EDGE ( 'NONE', *, *, #14, .F. ) ;
#190 = ORIENTED_EDGE ( 'NONE', *, *, #59, .T. ) ;
#191 = ADVANCED_BREP_SHAPE_REPRESENTATION ( '107600002X400A', ( #192, #24 ), #49 ) ;
#192 = MANIFOLD_SOLID_BREP ( 'Importato1', #151 ) ;
#193 = UNCERTAINTY_MEASURE_WITH_UNIT (LENGTH_MEASURE( 1.000000000000000100E-005 ), #297, 'distance_accuracy_value', 'NONE');
#194 = SURFACE_SIDE_STYLE ('',( #88 ) ) ;
#195 = DIRECTION ( 'NONE',  ( 1.000000000000000000, -1.235990476633475100E-014, 0.0000000000000000000 ) ) ;
#196 = FILL_AREA_STYLE ('',( #273 ) ) ;
#197 =( LENGTH_UNIT ( ) NAMED_UNIT ( * ) SI_UNIT ( .MILLI., .METRE. ) );
#198 = CARTESIAN_POINT ( 'NONE',  ( 0.0000000000000000000, 6.500000000000000900, 0.0000000000000000000 ) ) ;
#199 = CARTESIAN_POINT ( 'NONE',  ( 0.0000000000000000000, 2.462146829999900500, 0.0000000000000000000 ) ) ;
#200 = CARTESIAN_POINT ( 'NONE',  ( -3.238400000000000400, 0.0000000000000000000, 3.238400000000000400 ) ) ;
#201 = DIRECTION ( 'NONE',  ( -0.0000000000000000000, -1.000000000000000000, -1.355252715606880500E-016 ) ) ;
#202 = CARTESIAN_POINT ( 'NONE',  ( 3.673940397442059900E-016, 0.0000000000000000000, -3.000000000000000000 ) ) ;
#203 = FILL_AREA_STYLE_COLOUR ( '', #91 ) ;
#204 = DIRECTION ( 'NONE',  ( 0.0000000000000000000, 2.710505431213746800E-016, -1.000000000000000000 ) ) ;
#205 = DIRECTION ( 'NONE',  ( 0.0000000000000000000, 1.000000000000000000, 1.355252715606880500E-016 ) ) ;
#206 = CARTESIAN_POINT ( 'NONE',  ( 4.408728476930482500E-016, 6.499999999999949400, 3.200000000000017100 ) ) ;
#207 = DIRECTION ( 'NONE',  ( 0.0000000000000000000, -1.000000000000000000, 0.0000000000000000000 ) ) ;
#208 = DIRECTION ( 'NONE',  ( 0.0000000000000000000, -1.000000000000000000, -0.0000000000000000000 ) ) ;
#209 = DIRECTION ( 'NONE',  ( -0.0000000000000000000, 1.000000000000000000, 0.0000000000000000000 ) ) ;
#210 = DIRECTION ( 'NONE',  ( 0.0000000000000000000, 0.0000000000000000000, 1.000000000000000000 ) ) ;
#211 = CARTESIAN_POINT ( 'NONE',  ( 0.0000000000000000000, 4.037853170000000000, -4.000000000000000000 ) ) ;
#212 = CARTESIAN_POINT ( 'NONE',  ( 0.0000000000000000000, 2.462146829999900500, 0.0000000000000000000 ) ) ;
#213 = DIRECTION ( 'NONE',  ( 0.0000000000000000000, 1.000000000000000000, 0.0000000000000000000 ) ) ;
#214 = DIRECTION ( 'NONE',  ( 0.0000000000000000000, 2.471980953266950100E-014, 1.000000000000000000 ) ) ;
#215 = CARTESIAN_POINT ( 'NONE',  ( 4.898587196589412800E-016, 4.037853170000000000, 4.000000000000000000 ) ) ;
#216 = DIRECTION ( 'NONE',  ( 0.0000000000000000000, -1.000000000000000000, 0.0000000000000000000 ) ) ;
#217 = CARTESIAN_POINT ( 'NONE',  ( 0.0000000000000000000, 0.0000000000000000000, 0.0000000000000000000 ) ) ;
#218 = CARTESIAN_POINT ( 'NONE',  ( 0.0000000000000000000, 4.037853170000049700, 0.0000000000000000000 ) ) ;
#219 = DIRECTION ( 'NONE',  ( 0.0000000000000000000, 0.0000000000000000000, 1.000000000000000000 ) ) ;
#220 = DIRECTION ( 'NONE',  ( 0.0000000000000000000, -1.000000000000000000, 0.0000000000000000000 ) ) ;
#221 = PLANE ( 'NONE',  #26 ) ;
#222 = DIRECTION ( 'NONE',  ( -0.0000000000000000000, 1.000000000000000000, 0.0000000000000000000 ) ) ;
#223 = DIRECTION ( 'NONE',  ( 0.0000000000000000000, 0.0000000000000000000, 1.000000000000000000 ) ) ;
#224 = DIRECTION ( 'NONE',  ( 0.0000000000000000000, 0.0000000000000000000, -1.000000000000000000 ) ) ;
#225 = DIRECTION ( 'NONE',  ( 0.0000000000000000000, 0.0000000000000000000, -1.000000000000000000 ) ) ;
#226 = DIRECTION ( 'NONE',  ( -0.0000000000000000000, 1.000000000000000000, 0.0000000000000000000 ) ) ;
#227 = CARTESIAN_POINT ( 'NONE',  ( 4.898587196589412800E-016, 2.462146829999900500, 4.000000000000000000 ) ) ;
#228 = DIRECTION ( 'NONE',  ( 0.0000000000000000000, 0.0000000000000000000, 1.000000000000000000 ) ) ;
#229 = CARTESIAN_POINT ( 'NONE',  ( 0.0000000000000000000, 4.037853170000000000, 0.0000000000000000000 ) ) ;
#230 = CARTESIAN_POINT ( 'NONE',  ( 0.0000000000000000000, 2.462146829999900500, -4.000000000000000000 ) ) ;
#231 = CARTESIAN_POINT ( 'NONE',  ( 0.0000000000000000000, 6.500000000000000900, 0.0000000000000000000 ) ) ;
#232 = DIRECTION ( 'NONE',  ( 0.0000000000000000000, 0.0000000000000000000, -1.000000000000000000 ) ) ;
#233 = DIRECTION ( 'NONE',  ( -0.0000000000000000000, -1.000000000000000000, -1.355252715606880500E-016 ) ) ;
#234 = CARTESIAN_POINT ( 'NONE',  ( 0.0000000000000000000, 0.0000000000000000000, 0.0000000000000000000 ) ) ;
#235 = DIRECTION ( 'NONE',  ( -0.0000000000000000000, 1.000000000000000000, 0.0000000000000000000 ) ) ;
#236 = DIRECTION ( 'NONE',  ( 0.0000000000000000000, 0.0000000000000000000, 1.000000000000000000 ) ) ;
#237 = CARTESIAN_POINT ( 'NONE',  ( 0.0000000000000000000, 0.0000000000000000000, 0.0000000000000000000 ) ) ;
#238 = DIRECTION ( 'NONE',  ( 0.0000000000000000000, 1.000000000000000000, 0.0000000000000000000 ) ) ;
#239 = DIRECTION ( 'NONE',  ( -0.0000000000000000000, 1.000000000000000000, 0.0000000000000000000 ) ) ;
#240 = CARTESIAN_POINT ( 'NONE',  ( -3.238400000000000400, 6.500000000000000900, -3.238400000000000400 ) ) ;
#241 = PLANE ( 'NONE',  #32 ) ;
#242 = DIRECTION ( 'NONE',  ( 0.0000000000000000000, -1.000000000000000000, 0.0000000000000000000 ) ) ;
#243 = DIRECTION ( 'NONE',  ( 0.0000000000000000000, 0.0000000000000000000, -1.000000000000000000 ) ) ;
#244 = DIRECTION ( 'NONE',  ( 0.0000000000000000000, 0.0000000000000000000, 1.000000000000000000 ) ) ;
#245 = CARTESIAN_POINT ( 'NONE',  ( 0.0000000000000000000, 4.037853170000000000, 0.0000000000000000000 ) ) ;
#246 = DIRECTION ( 'NONE',  ( 0.0000000000000000000, 0.0000000000000000000, 1.000000000000000000 ) ) ;
#247 = CARTESIAN_POINT ( 'NONE',  ( 0.0000000000000000000, 0.0000000000000000000, 0.0000000000000000000 ) ) ;
#248 = CARTESIAN_POINT ( 'NONE',  ( 0.0000000000000000000, 0.0000000000000000000, 0.0000000000000000000 ) ) ;
#249 = DIRECTION ( 'NONE',  ( -0.0000000000000000000, 1.000000000000000000, 0.0000000000000000000 ) ) ;
#250 = DIRECTION ( 'NONE',  ( 0.0000000000000000000, 0.0000000000000000000, 1.000000000000000000 ) ) ;
#251 = DIRECTION ( 'NONE',  ( 0.0000000000000000000, -1.000000000000000000, 0.0000000000000000000 ) ) ;
#252 = DIRECTION ( 'NONE',  ( 0.0000000000000000000, -1.000000000000000000, -0.0000000000000000000 ) ) ;
#253 = CARTESIAN_POINT ( 'NONE',  ( 3.673940397442059900E-016, 6.500000000000000900, -3.000000000000000000 ) ) ;
#254 = DIRECTION ( 'NONE',  ( 0.0000000000000000000, 0.0000000000000000000, -1.000000000000000000 ) ) ;
#255 = CARTESIAN_POINT ( 'NONE',  ( 4.408728476930471200E-016, 0.0000000000000000000, -3.200000000000000200 ) ) ;
#256 = CARTESIAN_POINT ( 'NONE',  ( 0.0000000000000000000, 6.499999999999950300, -6.817867234793376900E-030 ) ) ;
#257 = CARTESIAN_POINT ( 'NONE',  ( 0.0000000000000000000, 6.500000000000000900, 0.0000000000000000000 ) ) ;
#258 = DIRECTION ( 'NONE',  ( 0.0000000000000000000, 0.0000000000000000000, 1.000000000000000000 ) ) ;
#259 = CARTESIAN_POINT ( 'NONE',  ( 0.0000000000000000000, 4.037853170000049700, -4.000000000000000000 ) ) ;
#260 = CARTESIAN_POINT ( 'NONE',  ( 0.0000000000000000000, 0.0000000000000000000, 3.200000000000000200 ) ) ;
#261 = CARTESIAN_POINT ( 'NONE',  ( 0.0000000000000000000, 0.0000000000000000000, 3.200000000000000200 ) ) ;
#262 = DIRECTION ( 'NONE',  ( 0.0000000000000000000, -1.000000000000000000, 0.0000000000000000000 ) ) ;
#263 = CARTESIAN_POINT ( 'NONE',  ( 3.673940397442059900E-016, 0.0000000000000000000, -3.000000000000000000 ) ) ;
#264 = CARTESIAN_POINT ( 'NONE',  ( 3.918869757271530500E-016, 0.0000000000000000000, -3.200000000000000200 ) ) ;
#265 = DIRECTION ( 'NONE',  ( 0.0000000000000000000, 0.9510565163047363100, 0.3090169943454546500 ) ) ;
#266 = CARTESIAN_POINT ( 'NONE',  ( 0.0000000000000000000, 0.0000000000000000000, 0.0000000000000000000 ) ) ;
#267 = DIRECTION ( 'NONE',  ( -0.0000000000000000000, 1.000000000000000000, 0.0000000000000000000 ) ) ;
#268 = DIRECTION ( 'NONE',  ( 3.784366730072968700E-017, 0.9510565163047363100, -0.3090169943454546500 ) ) ;
#269 = CARTESIAN_POINT ( 'NONE',  ( 0.0000000000000000000, 6.499999999999951200, -3.200000000000016600 ) ) ;
#270 = CARTESIAN_POINT ( 'NONE',  ( 4.898587196589412800E-016, 4.037853170000049700, 4.000000000000000000 ) ) ;
#271 = CARTESIAN_POINT ( 'NONE',  ( 0.0000000000000000000, 0.0000000000000000000, 3.000000000000000000 ) ) ;
#272 = DIRECTION ( 'NONE',  ( -0.0000000000000000000, 1.000000000000000000, 0.0000000000000000000 ) ) ;
#273 = FILL_AREA_STYLE_COLOUR ( '', #107 ) ;
#274 = CARTESIAN_POINT ( 'NONE',  ( 0.0000000000000000000, 4.037853170000049700, 0.0000000000000000000 ) ) ;
#275 = DIRECTION ( 'NONE',  ( 0.0000000000000000000, -1.000000000000000000, -0.0000000000000000000 ) ) ;
#276 = CARTESIAN_POINT ( 'NONE',  ( 0.0000000000000000000, 0.0000000000000000000, 0.0000000000000000000 ) ) ;
#277 = CARTESIAN_POINT ( 'NONE',  ( 0.0000000000000000000, 6.500000000000000900, 3.000000000000000000 ) ) ;
#278 = CARTESIAN_POINT ( 'NONE',  ( 0.0000000000000000000, 0.0000000000000000000, 3.000000000000000000 ) ) ;
#279 = DIRECTION ( 'NONE',  ( 1.000000000000000000, -1.235990476633475100E-014, 0.0000000000000000000 ) ) ;
#280 = DIRECTION ( 'NONE',  ( 0.0000000000000000000, -1.000000000000000000, 0.0000000000000000000 ) ) ;
#281 = DIRECTION ( 'NONE',  ( 3.784366730072966900E-017, -0.9510565163047364200, 0.3090169943454544900 ) ) ;
#282 = DIRECTION ( 'NONE',  ( 0.0000000000000000000, 0.0000000000000000000, 1.000000000000000000 ) ) ;
#283 = DIRECTION ( 'NONE',  ( 0.0000000000000000000, 2.710505431213746800E-016, -1.000000000000000000 ) ) ;
#284 = DIRECTION ( 'NONE',  ( 0.0000000000000000000, 1.000000000000000000, 1.355252715606880500E-016 ) ) ;
#285 = CARTESIAN_POINT ( 'NONE',  ( 0.0000000000000000000, 6.499999999999950300, -6.817867234793376900E-030 ) ) ;
#286 = CARTESIAN_POINT ( 'NONE',  ( 3.918869757271530500E-016, 6.500000000000000900, 3.200000000000000200 ) ) ;
#287 = APPLICATION_PROTOCOL_DEFINITION ( 'draft international standard', 'automotive_design', 1998, #288 ) ;
#288 = APPLICATION_CONTEXT ( 'automotive_design' ) ;
#289 = PRODUCT_CONTEXT ( 'NONE', #304, 'mechanical' ) ;
#290 = DIRECTION ( 'NONE',  ( 1.000000000000000000, 0.0000000000000000000, 0.0000000000000000000 ) ) ;
#291 = DIRECTION ( 'NONE',  ( 0.0000000000000000000, 0.0000000000000000000, 1.000000000000000000 ) ) ;
#292 = CARTESIAN_POINT ( 'NONE',  ( 0.0000000000000000000, 0.0000000000000000000, 0.0000000000000000000 ) ) ;
#293 = DIRECTION ( 'NONE',  ( 0.0000000000000000000, 0.0000000000000000000, 1.000000000000000000 ) ) ;
#294 = DIRECTION ( 'NONE',  ( 0.0000000000000000000, -1.000000000000000000, -0.0000000000000000000 ) ) ;
#295 =( NAMED_UNIT ( * ) SI_UNIT ( $, .STERADIAN. ) SOLID_ANGLE_UNIT ( ) );
#296 =( NAMED_UNIT ( * ) PLANE_ANGLE_UNIT ( ) SI_UNIT ( $, .RADIAN. ) );
#297 =( LENGTH_UNIT ( ) NAMED_UNIT ( * ) SI_UNIT ( .MILLI., .METRE. ) );
#298 = CARTESIAN_POINT ( 'NONE',  ( 0.0000000000000000000, 0.0000000000000000000, 0.0000000000000000000 ) ) ;
#299 = SURFACE_STYLE_USAGE ( .BOTH. , #301 ) ;
#300 = CARTESIAN_POINT ( 'NONE',  ( 0.0000000000000000000, 6.500000000000000900, -3.200000000000000200 ) ) ;
#301 = SURFACE_SIDE_STYLE ('',( #163 ) ) ;
#302 = FILL_AREA_STYLE ('',( #203 ) ) ;
#303 = DIRECTION ( 'NONE',  ( 0.0000000000000000000, 2.471980953266950100E-014, 1.000000000000000000 ) ) ;
#304 = APPLICATION_CONTEXT ( 'automotive_design' ) ;
#305 = APPLICATION_PROTOCOL_DEFINITION ( 'draft international standard', 'automotive_design', 1998, #304 ) ;
#306 =( NAMED_UNIT ( * ) SI_UNIT ( $, .STERADIAN. ) SOLID_ANGLE_UNIT ( ) );
#307 = DIRECTION ( 'NONE',  ( 0.0000000000000000000, 1.000000000000000000, 0.0000000000000000000 ) ) ;
#308 =( NAMED_UNIT ( * ) PLANE_ANGLE_UNIT ( ) SI_UNIT ( $, .RADIAN. ) );
#309 =( NAMED_UNIT ( * ) SI_UNIT ( $, .STERADIAN. ) SOLID_ANGLE_UNIT ( ) );
#310 =( NAMED_UNIT ( * ) PLANE_ANGLE_UNIT ( ) SI_UNIT ( $, .RADIAN. ) );
#311 = DIRECTION ( 'NONE',  ( 0.0000000000000000000, -0.9510565163047363100, -0.3090169943454546500 ) ) ;
#312 =( LENGTH_UNIT ( ) NAMED_UNIT ( * ) SI_UNIT ( .MILLI., .METRE. ) );
#313 = CARTESIAN_POINT ( 'NONE',  ( 0.0000000000000000000, 6.500000000000000900, 0.0000000000000000000 ) ) ;
#314 = SURFACE_STYLE_USAGE ( .BOTH. , #194 ) ;
ENDSEC;
END-ISO-10303-21;
