ISO-10303-21;
HEADER;
FILE_DESCRIPTION (( 'STEP AP214' ),
    '1' );
FILE_NAME ('107600002X700A.STEP',
    '2013-02-25T17:26:07',
    ( '' ),
    ( '' ),
    'SwSTEP 2.0',
    'SolidWorks 2012',
    '' );
FILE_SCHEMA (( 'AUTOMOTIVE_DESIGN' ));
ENDSEC;

DATA;
#1 = ADVANCED_FACE ( 'NONE', ( #182, #105 ), #197, .T. ) ;
#2 = ADVANCED_FACE ( 'NONE', ( #80 ), #126, .F. ) ;
#3 = ADVANCED_FACE ( 'NONE', ( #82 ), #189, .T. ) ;
#4 = ADVANCED_FACE ( 'NONE', ( #124 ), #138, .F. ) ;
#5 = ADVANCED_FACE ( 'NONE', ( #91 ), #188, .T. ) ;
#6 = ADVANCED_FACE ( 'NONE', ( #70, #89 ), #259, .T. ) ;
#7 = ADVANCED_FACE ( 'NONE', ( #190 ), #86, .T. ) ;
#8 = ADVANCED_FACE ( 'NONE', ( #81 ), #93, .T. ) ;
#9 = ADVANCED_FACE ( 'NONE', ( #125 ), #83, .T. ) ;
#10 = ADVANCED_FACE ( 'NONE', ( #85 ), #90, .T. ) ;
#11 = EDGE_CURVE ( 'NONE', #110, #176, #72, .T. ) ;
#12 =( GEOMETRIC_REPRESENTATION_CONTEXT ( 3 ) GLOBAL_UNCERTAINTY_ASSIGNED_CONTEXT ( ( #193 ) ) GLOBAL_UNIT_ASSIGNED_CONTEXT ( ( #207, #206, #205 ) ) REPRESENTATION_CONTEXT ( 'NONE', 'WORKASPACE' ) );
#13 = MECHANICAL_DESIGN_GEOMETRIC_PRESENTATION_REPRESENTATION (  '', ( #15 ), #12 ) ;
#14 = PRESENTATION_LAYER_ASSIGNMENT (  '', '', ( #15 ) ) ;
#15 = STYLED_ITEM ( 'NONE', ( #131 ), #192 ) ;
#16 =( GEOMETRIC_REPRESENTATION_CONTEXT ( 3 ) GLOBAL_UNCERTAINTY_ASSIGNED_CONTEXT ( ( #191 ) ) GLOBAL_UNIT_ASSIGNED_CONTEXT ( ( #218, #217, #215 ) ) REPRESENTATION_CONTEXT ( 'NONE', 'WORKASPACE' ) );
#17 =( GEOMETRIC_REPRESENTATION_CONTEXT ( 3 ) GLOBAL_UNCERTAINTY_ASSIGNED_CONTEXT ( ( #115 ) ) GLOBAL_UNIT_ASSIGNED_CONTEXT ( ( #237, #236, #235 ) ) REPRESENTATION_CONTEXT ( 'NONE', 'WORKASPACE' ) );
#18 = MECHANICAL_DESIGN_GEOMETRIC_PRESENTATION_REPRESENTATION (  '', ( #20 ), #17 ) ;
#19 = PRESENTATION_LAYER_ASSIGNMENT (  '', '', ( #20 ) ) ;
#20 = STYLED_ITEM ( 'NONE', ( #165 ), #73 ) ;
#21 = AXIS2_PLACEMENT_3D ( 'NONE', #245, #241, #240 ) ;
#22 = AXIS2_PLACEMENT_3D ( 'NONE', #251, #250, #248 ) ;
#23 = AXIS2_PLACEMENT_3D ( 'NONE', #261, #260, #257 ) ;
#24 = AXIS2_PLACEMENT_3D ( 'NONE', #266, #265, #264 ) ;
#25 = AXIS2_PLACEMENT_3D ( 'NONE', #276, #275, #274 ) ;
#26 = AXIS2_PLACEMENT_3D ( 'NONE', #282, #281, #280 ) ;
#27 = AXIS2_PLACEMENT_3D ( 'NONE', #279, #269, #271 ) ;
#28 = AXIS2_PLACEMENT_3D ( 'NONE', #287, #284, #285 ) ;
#29 = AXIS2_PLACEMENT_3D ( 'NONE', #294, #288, #291 ) ;
#30 = AXIS2_PLACEMENT_3D ( 'NONE', #299, #297, #293 ) ;
#31 = AXIS2_PLACEMENT_3D ( 'NONE', #307, #304, #302 ) ;
#32 = AXIS2_PLACEMENT_3D ( 'NONE', #242, #313, #310 ) ;
#33 = AXIS2_PLACEMENT_3D ( 'NONE', #314, #312, #272 ) ;
#34 = AXIS2_PLACEMENT_3D ( 'NONE', #255, #214, #234 ) ;
#35 = AXIS2_PLACEMENT_3D ( 'NONE', #194, #196, #216 ) ;
#36 = AXIS2_PLACEMENT_3D ( 'NONE', #244, #249, #219 ) ;
#37 = AXIS2_PLACEMENT_3D ( 'NONE', #224, #220, #199 ) ;
#38 = AXIS2_PLACEMENT_3D ( 'NONE', #308, #198, #306 ) ;
#39 = AXIS2_PLACEMENT_3D ( 'NONE', #292, #303, #298 ) ;
#40 = AXIS2_PLACEMENT_3D ( 'NONE', #195, #263, #254 ) ;
#41 = EDGE_CURVE ( 'NONE', #98, #110, #136, .T. ) ;
#42 = EDGE_CURVE ( 'NONE', #133, #178, #88, .T. ) ;
#43 = EDGE_CURVE ( 'NONE', #176, #141, #101, .T. ) ;
#44 = EDGE_CURVE ( 'NONE', #178, #168, #139, .T. ) ;
#45 = EDGE_CURVE ( 'NONE', #175, #171, #87, .T. ) ;
#46 = EDGE_CURVE ( 'NONE', #110, #98, #69, .T. ) ;
#47 = EDGE_CURVE ( 'NONE', #168, #173, #134, .T. ) ;
#48 = EDGE_CURVE ( 'NONE', #98, #141, #151, .T. ) ;
#49 = EDGE_CURVE ( 'NONE', #133, #173, #155, .T. ) ;
#50 = EDGE_CURVE ( 'NONE', #171, #175, #169, .T. ) ;
#51 = AXIS2_PLACEMENT_3D ( 'NONE', #223, #204, #203 ) ;
#52 = EDGE_CURVE ( 'NONE', #171, #147, #154, .T. ) ;
#53 = EDGE_CURVE ( 'NONE', #179, #147, #148, .T. ) ;
#54 = EDGE_CURVE ( 'NONE', #175, #179, #137, .T. ) ;
#55 = EDGE_CURVE ( 'NONE', #173, #179, #150, .T. ) ;
#56 = EDGE_CURVE ( 'NONE', #168, #147, #159, .T. ) ;
#57 = EDGE_CURVE ( 'NONE', #173, #168, #92, .T. ) ;
#58 = EDGE_CURVE ( 'NONE', #147, #179, #163, .T. ) ;
#59 = EDGE_CURVE ( 'NONE', #178, #133, #162, .T. ) ;
#60 = PRODUCT_DEFINITION ( 'NON CONOSCIUTO', '', #61, #67 ) ;
#61 = PRODUCT_DEFINITION_FORMATION_WITH_SPECIFIED_SOURCE ( 'TUTTO', '', #66, .NOT_KNOWN. ) ;
#62 = PRODUCT_RELATED_PRODUCT_CATEGORY ( 'part', '', ( #66 ) ) ;
#63 = EDGE_CURVE ( 'NONE', #141, #176, #161, .T. ) ;
#64 = AXIS2_PLACEMENT_3D ( 'NONE', #253, #243, #258 ) ;
#65 = AXIS2_PLACEMENT_3D ( 'NONE', #305, #301, #300 ) ;
#66 = PRODUCT ( '107600002X700A', '107600002X700A', '', ( #202 ) ) ;
#67 = PRODUCT_DEFINITION_CONTEXT ( 'detailed design', #201, 'design' ) ;
#68 = PRODUCT_DEFINITION_SHAPE ( 'NONE', 'NONE',  #60 ) ;
#69 = CIRCLE ( 'NONE', #28, 4.000000000000000000 ) ;
#70 = FACE_BOUND ( 'NONE', #96, .T. ) ;
#71 = EDGE_LOOP ( 'NONE', ( #117, #120, #95, #116 ) ) ;
#72 = LINE ( 'NONE', #225, #128 ) ;
#73 = MANIFOLD_SOLID_BREP ( 'Importato1', #142 ) ;
#74 = EDGE_LOOP ( 'NONE', ( #122, #123, #130, #174 ) ) ;
#75 = ORIENTED_EDGE ( 'NONE', *, *, #41, .F. ) ;
#76 = EDGE_LOOP ( 'NONE', ( #170, #108, #102, #103 ) ) ;
#77 = EDGE_LOOP ( 'NONE', ( #149, #166 ) ) ;
#78 = EDGE_LOOP ( 'NONE', ( #187, #112, #104, #119 ) ) ;
#79 = EDGE_LOOP ( 'NONE', ( #107, #109, #180, #129 ) ) ;
#80 = FACE_OUTER_BOUND ( 'NONE', #121, .T. ) ;
#81 = FACE_OUTER_BOUND ( 'NONE', #146, .T. ) ;
#82 = FACE_OUTER_BOUND ( 'NONE', #79, .T. ) ;
#83 = CONICAL_SURFACE ( 'NONE', #34, 4.250000000000000000, 0.3141592653438837800 ) ;
#84 = VECTOR ( 'NONE', #309, 1000.000000000000100 ) ;
#85 = FACE_OUTER_BOUND ( 'NONE', #71, .T. ) ;
#86 = CONICAL_SURFACE ( 'NONE', #40, 4.250000000000000000, 0.3141592653438841100 ) ;
#87 = CIRCLE ( 'NONE', #29, 4.250000000000000000 ) ;
#88 = CIRCLE ( 'NONE', #31, 4.250000000000016900 ) ;
#89 = FACE_OUTER_BOUND ( 'NONE', #77, .T. ) ;
#90 = CONICAL_SURFACE ( 'NONE', #33, 4.250000000000000000, 0.3141592653438841100 ) ;
#91 = FACE_OUTER_BOUND ( 'NONE', #74, .T. ) ;
#92 = CIRCLE ( 'NONE', #24, 5.000000000000000000 ) ;
#93 = CONICAL_SURFACE ( 'NONE', #35, 4.250000000000000000, 0.3141592653438837800 ) ;
#94 = ORIENTED_EDGE ( 'NONE', *, *, #49, .F. ) ;
#95 = ORIENTED_EDGE ( 'NONE', *, *, #54, .T. ) ;
#96 = EDGE_LOOP ( 'NONE', ( #177, #140 ) ) ;
#97 = ORIENTED_EDGE ( 'NONE', *, *, #11, .T. ) ;
#98 = VERTEX_POINT ( 'NONE', #233 ) ;
#99 = COLOUR_RGB ( '',0.7921568627450980000, 0.8196078431372548800, 0.9333333333333333500 ) ;
#100 = ORIENTED_EDGE ( 'NONE', *, *, #49, .T. ) ;
#101 = CIRCLE ( 'NONE', #30, 4.000000000000000000 ) ;
#102 = ORIENTED_EDGE ( 'NONE', *, *, #48, .T. ) ;
#103 = ORIENTED_EDGE ( 'NONE', *, *, #63, .T. ) ;
#104 = ORIENTED_EDGE ( 'NONE', *, *, #53, .F. ) ;
#105 = FACE_OUTER_BOUND ( 'NONE', #184, .T. ) ;
#106 = ORIENTED_EDGE ( 'NONE', *, *, #46, .F. ) ;
#107 = ORIENTED_EDGE ( 'NONE', *, *, #47, .T. ) ;
#108 = ORIENTED_EDGE ( 'NONE', *, *, #46, .T. ) ;
#109 = ORIENTED_EDGE ( 'NONE', *, *, #55, .T. ) ;
#110 = VERTEX_POINT ( 'NONE', #256 ) ;
#111 = ORIENTED_EDGE ( 'NONE', *, *, #45, .T. ) ;
#112 = ORIENTED_EDGE ( 'NONE', *, *, #52, .T. ) ;
#113 = ORIENTED_EDGE ( 'NONE', *, *, #44, .T. ) ;
#114 = ORIENTED_EDGE ( 'NONE', *, *, #57, .F. ) ;
#115 = UNCERTAINTY_MEASURE_WITH_UNIT (LENGTH_MEASURE( 1.000000000000000100E-005 ), #237, 'distance_accuracy_value', 'NONE');
#116 = ORIENTED_EDGE ( 'NONE', *, *, #58, .F. ) ;
#117 = ORIENTED_EDGE ( 'NONE', *, *, #52, .F. ) ;
#118 = ORIENTED_EDGE ( 'NONE', *, *, #48, .F. ) ;
#119 = ORIENTED_EDGE ( 'NONE', *, *, #54, .F. ) ;
#120 = ORIENTED_EDGE ( 'NONE', *, *, #45, .F. ) ;
#121 = EDGE_LOOP ( 'NONE', ( #181, #97, #145, #118 ) ) ;
#122 = ORIENTED_EDGE ( 'NONE', *, *, #55, .F. ) ;
#123 = ORIENTED_EDGE ( 'NONE', *, *, #57, .T. ) ;
#124 = FACE_OUTER_BOUND ( 'NONE', #76, .T. ) ;
#125 = FACE_OUTER_BOUND ( 'NONE', #144, .T. ) ;
#126 = CYLINDRICAL_SURFACE ( 'NONE', #39, 4.000000000000000000 ) ;
#127 = SHAPE_DEFINITION_REPRESENTATION ( #68, #192 ) ;
#128 = VECTOR ( 'NONE', #311, 1000.000000000000000 ) ;
#129 = ORIENTED_EDGE ( 'NONE', *, *, #56, .F. ) ;
#130 = ORIENTED_EDGE ( 'NONE', *, *, #56, .T. ) ;
#131 = PRESENTATION_STYLE_ASSIGNMENT (( #208 ) ) ;
#132 = SURFACE_STYLE_FILL_AREA ( #210 ) ;
#133 = VERTEX_POINT ( 'NONE', #232 ) ;
#134 = CIRCLE ( 'NONE', #27, 5.000000000000000000 ) ;
#135 = ORIENTED_EDGE ( 'NONE', *, *, #44, .F. ) ;
#136 = CIRCLE ( 'NONE', #32, 4.000000000000000000 ) ;
#137 = LINE ( 'NONE', #278, #160 ) ;
#138 = CYLINDRICAL_SURFACE ( 'NONE', #37, 4.000000000000000000 ) ;
#139 = LINE ( 'NONE', #213, #84 ) ;
#140 = ORIENTED_EDGE ( 'NONE', *, *, #43, .F. ) ;
#141 = VERTEX_POINT ( 'NONE', #246 ) ;
#142 = CLOSED_SHELL ( 'NONE', ( #2, #9, #7, #3, #4, #6, #1, #8, #10, #5 ) ) ;
#143 = ORIENTED_EDGE ( 'NONE', *, *, #47, .F. ) ;
#144 = EDGE_LOOP ( 'NONE', ( #186, #100, #143, #135 ) ) ;
#145 = ORIENTED_EDGE ( 'NONE', *, *, #43, .T. ) ;
#146 = EDGE_LOOP ( 'NONE', ( #94, #185, #113, #114 ) ) ;
#147 = VERTEX_POINT ( 'NONE', #229 ) ;
#148 = CIRCLE ( 'NONE', #25, 5.000000000000000000 ) ;
#149 = ORIENTED_EDGE ( 'NONE', *, *, #59, .T. ) ;
#150 = LINE ( 'NONE', #277, #158 ) ;
#151 = LINE ( 'NONE', #283, #153 ) ;
#152 = VECTOR ( 'NONE', #295, 1000.000000000000200 ) ;
#153 = VECTOR ( 'NONE', #296, 1000.000000000000000 ) ;
#154 = LINE ( 'NONE', #290, #152 ) ;
#155 = LINE ( 'NONE', #267, #167 ) ;
#156 = VECTOR ( 'NONE', #268, 1000.000000000000000 ) ;
#157 = COLOUR_RGB ( '',0.7921568627450980000, 0.8196078431372548800, 0.9333333333333333500 ) ;
#158 = VECTOR ( 'NONE', #273, 1000.000000000000000 ) ;
#159 = LINE ( 'NONE', #270, #156 ) ;
#160 = VECTOR ( 'NONE', #286, 1000.000000000000200 ) ;
#161 = CIRCLE ( 'NONE', #21, 4.000000000000000000 ) ;
#162 = CIRCLE ( 'NONE', #22, 4.250000000000016900 ) ;
#163 = CIRCLE ( 'NONE', #23, 5.000000000000000000 ) ;
#164 = SURFACE_STYLE_FILL_AREA ( #247 ) ;
#165 = PRESENTATION_STYLE_ASSIGNMENT (( #238 ) ) ;
#166 = ORIENTED_EDGE ( 'NONE', *, *, #42, .T. ) ;
#167 = VECTOR ( 'NONE', #289, 1000.000000000000200 ) ;
#168 = VERTEX_POINT ( 'NONE', #230 ) ;
#169 = CIRCLE ( 'NONE', #26, 4.250000000000000000 ) ;
#170 = ORIENTED_EDGE ( 'NONE', *, *, #11, .F. ) ;
#171 = VERTEX_POINT ( 'NONE', #231 ) ;
#172 = ORIENTED_EDGE ( 'NONE', *, *, #50, .T. ) ;
#173 = VERTEX_POINT ( 'NONE', #228 ) ;
#174 = ORIENTED_EDGE ( 'NONE', *, *, #58, .T. ) ;
#175 = VERTEX_POINT ( 'NONE', #252 ) ;
#176 = VERTEX_POINT ( 'NONE', #227 ) ;
#177 = ORIENTED_EDGE ( 'NONE', *, *, #63, .F. ) ;
#178 = VERTEX_POINT ( 'NONE', #226 ) ;
#179 = VERTEX_POINT ( 'NONE', #222 ) ;
#180 = ORIENTED_EDGE ( 'NONE', *, *, #53, .T. ) ;
#181 = ORIENTED_EDGE ( 'NONE', *, *, #41, .T. ) ;
#182 = FACE_BOUND ( 'NONE', #183, .T. ) ;
#183 = EDGE_LOOP ( 'NONE', ( #75, #106 ) ) ;
#184 = EDGE_LOOP ( 'NONE', ( #111, #172 ) ) ;
#185 = ORIENTED_EDGE ( 'NONE', *, *, #59, .F. ) ;
#186 = ORIENTED_EDGE ( 'NONE', *, *, #42, .F. ) ;
#187 = ORIENTED_EDGE ( 'NONE', *, *, #50, .F. ) ;
#188 = CYLINDRICAL_SURFACE ( 'NONE', #36, 5.000000000000000000 ) ;
#189 = CYLINDRICAL_SURFACE ( 'NONE', #38, 5.000000000000000000 ) ;
#190 = FACE_OUTER_BOUND ( 'NONE', #78, .T. ) ;
#191 = UNCERTAINTY_MEASURE_WITH_UNIT (LENGTH_MEASURE( 1.000000000000000100E-005 ), #218, 'distance_accuracy_value', 'NONE');
#192 = ADVANCED_BREP_SHAPE_REPRESENTATION ( '107600002X700A', ( #73, #51 ), #16 ) ;
#193 = UNCERTAINTY_MEASURE_WITH_UNIT (LENGTH_MEASURE( 1.000000000000000100E-005 ), #207, 'distance_accuracy_value', 'NONE');
#194 = CARTESIAN_POINT ( 'NONE',  ( 0.0000000000000000000, 6.500000000000000900, 0.0000000000000000000 ) ) ;
#195 = CARTESIAN_POINT ( 'NONE',  ( 0.0000000000000000000, 0.0000000000000000000, 0.0000000000000000000 ) ) ;
#196 = DIRECTION ( 'NONE',  ( -0.0000000000000000000, -1.000000000000000000, -1.020425574104004100E-016 ) ) ;
#197 = PLANE ( 'NONE',  #65 ) ;
#198 = DIRECTION ( 'NONE',  ( 0.0000000000000000000, -1.000000000000000000, 0.0000000000000000000 ) ) ;
#199 = DIRECTION ( 'NONE',  ( 0.0000000000000000000, 0.0000000000000000000, 1.000000000000000000 ) ) ;
#200 = APPLICATION_PROTOCOL_DEFINITION ( 'draft international standard', 'automotive_design', 1998, #201 ) ;
#201 = APPLICATION_CONTEXT ( 'automotive_design' ) ;
#202 = PRODUCT_CONTEXT ( 'NONE', #211, 'mechanical' ) ;
#203 = DIRECTION ( 'NONE',  ( 1.000000000000000000, 0.0000000000000000000, 0.0000000000000000000 ) ) ;
#204 = DIRECTION ( 'NONE',  ( 0.0000000000000000000, 0.0000000000000000000, 1.000000000000000000 ) ) ;
#205 =( NAMED_UNIT ( * ) SI_UNIT ( $, .STERADIAN. ) SOLID_ANGLE_UNIT ( ) );
#206 =( NAMED_UNIT ( * ) PLANE_ANGLE_UNIT ( ) SI_UNIT ( $, .RADIAN. ) );
#207 =( LENGTH_UNIT ( ) NAMED_UNIT ( * ) SI_UNIT ( .MILLI., .METRE. ) );
#208 = SURFACE_STYLE_USAGE ( .BOTH. , #209 ) ;
#209 = SURFACE_SIDE_STYLE ('',( #132 ) ) ;
#210 = FILL_AREA_STYLE ('',( #221 ) ) ;
#211 = APPLICATION_CONTEXT ( 'automotive_design' ) ;
#212 = APPLICATION_PROTOCOL_DEFINITION ( 'draft international standard', 'automotive_design', 1998, #211 ) ;
#213 = CARTESIAN_POINT ( 'NONE',  ( 0.0000000000000000000, 6.500000000000000900, -4.250000000000000000 ) ) ;
#214 = DIRECTION ( 'NONE',  ( -0.0000000000000000000, -1.000000000000000000, -1.020425574104004100E-016 ) ) ;
#215 =( NAMED_UNIT ( * ) SI_UNIT ( $, .STERADIAN. ) SOLID_ANGLE_UNIT ( ) );
#216 = DIRECTION ( 'NONE',  ( 0.0000000000000000000, 0.0000000000000000000, -1.000000000000000000 ) ) ;
#217 =( NAMED_UNIT ( * ) PLANE_ANGLE_UNIT ( ) SI_UNIT ( $, .RADIAN. ) );
#218 =( LENGTH_UNIT ( ) NAMED_UNIT ( * ) SI_UNIT ( .MILLI., .METRE. ) );
#219 = DIRECTION ( 'NONE',  ( 0.0000000000000000000, 0.0000000000000000000, -1.000000000000000000 ) ) ;
#220 = DIRECTION ( 'NONE',  ( -0.0000000000000000000, 1.000000000000000000, 0.0000000000000000000 ) ) ;
#221 = FILL_AREA_STYLE_COLOUR ( '', #99 ) ;
#222 = CARTESIAN_POINT ( 'NONE',  ( 6.123233995736766300E-016, 2.308262652999992800, 5.000000000000000000 ) ) ;
#223 = CARTESIAN_POINT ( 'NONE',  ( 0.0000000000000000000, 0.0000000000000000000, 0.0000000000000000000 ) ) ;
#224 = CARTESIAN_POINT ( 'NONE',  ( 0.0000000000000000000, 0.0000000000000000000, 0.0000000000000000000 ) ) ;
#225 = CARTESIAN_POINT ( 'NONE',  ( 4.898587196589412800E-016, 0.0000000000000000000, -4.000000000000000000 ) ) ;
#226 = CARTESIAN_POINT ( 'NONE',  ( 0.0000000000000000000, 6.499999999999951200, -4.250000000000016900 ) ) ;
#227 = CARTESIAN_POINT ( 'NONE',  ( 4.898587196589412800E-016, 6.500000000000000900, -4.000000000000000000 ) ) ;
#228 = CARTESIAN_POINT ( 'NONE',  ( 6.123233995736766300E-016, 4.191737346999957500, 5.000000000000000000 ) ) ;
#229 = CARTESIAN_POINT ( 'NONE',  ( 0.0000000000000000000, 2.308262652999992800, -5.000000000000000000 ) ) ;
#230 = CARTESIAN_POINT ( 'NONE',  ( 0.0000000000000000000, 4.191737346999957500, -5.000000000000000000 ) ) ;
#231 = CARTESIAN_POINT ( 'NONE',  ( 5.663991446056508500E-016, 0.0000000000000000000, -4.250000000000000000 ) ) ;
#232 = CARTESIAN_POINT ( 'NONE',  ( 5.663991446056519300E-016, 6.499999999999949400, 4.250000000000016900 ) ) ;
#233 = CARTESIAN_POINT ( 'NONE',  ( 0.0000000000000000000, 0.0000000000000000000, 4.000000000000000000 ) ) ;
#234 = DIRECTION ( 'NONE',  ( 0.0000000000000000000, 0.0000000000000000000, -1.000000000000000000 ) ) ;
#235 =( NAMED_UNIT ( * ) SI_UNIT ( $, .STERADIAN. ) SOLID_ANGLE_UNIT ( ) );
#236 =( NAMED_UNIT ( * ) PLANE_ANGLE_UNIT ( ) SI_UNIT ( $, .RADIAN. ) );
#237 =( LENGTH_UNIT ( ) NAMED_UNIT ( * ) SI_UNIT ( .MILLI., .METRE. ) );
#238 = SURFACE_STYLE_USAGE ( .BOTH. , #239 ) ;
#239 = SURFACE_SIDE_STYLE ('',( #164 ) ) ;
#240 = DIRECTION ( 'NONE',  ( 0.0000000000000000000, 0.0000000000000000000, 1.000000000000000000 ) ) ;
#241 = DIRECTION ( 'NONE',  ( -0.0000000000000000000, 1.000000000000000000, 0.0000000000000000000 ) ) ;
#242 = CARTESIAN_POINT ( 'NONE',  ( 0.0000000000000000000, 0.0000000000000000000, 0.0000000000000000000 ) ) ;
#243 = DIRECTION ( 'NONE',  ( 0.0000000000000000000, 1.000000000000000000, 0.0000000000000000000 ) ) ;
#244 = CARTESIAN_POINT ( 'NONE',  ( 0.0000000000000000000, 4.191737346999999200, 0.0000000000000000000 ) ) ;
#245 = CARTESIAN_POINT ( 'NONE',  ( 0.0000000000000000000, 6.500000000000000900, 0.0000000000000000000 ) ) ;
#246 = CARTESIAN_POINT ( 'NONE',  ( 0.0000000000000000000, 6.500000000000000900, 4.000000000000000000 ) ) ;
#247 = FILL_AREA_STYLE ('',( #262 ) ) ;
#248 = DIRECTION ( 'NONE',  ( 0.0000000000000000000, 2.040851148208000400E-016, -1.000000000000000000 ) ) ;
#249 = DIRECTION ( 'NONE',  ( 0.0000000000000000000, -1.000000000000000000, 0.0000000000000000000 ) ) ;
#250 = DIRECTION ( 'NONE',  ( 0.0000000000000000000, 1.000000000000000000, 1.020425574104004100E-016 ) ) ;
#251 = CARTESIAN_POINT ( 'NONE',  ( 0.0000000000000000000, 6.499999999999950300, -5.133452976785601400E-030 ) ) ;
#252 = CARTESIAN_POINT ( 'NONE',  ( 0.0000000000000000000, 0.0000000000000000000, 4.250000000000000000 ) ) ;
#253 = CARTESIAN_POINT ( 'NONE',  ( -4.301000000000000200, 6.500000000000000900, -4.301000000000000200 ) ) ;
#254 = DIRECTION ( 'NONE',  ( 0.0000000000000000000, 0.0000000000000000000, 1.000000000000000000 ) ) ;
#255 = CARTESIAN_POINT ( 'NONE',  ( 0.0000000000000000000, 6.500000000000000900, 0.0000000000000000000 ) ) ;
#256 = CARTESIAN_POINT ( 'NONE',  ( 4.898587196589412800E-016, 0.0000000000000000000, -4.000000000000000000 ) ) ;
#257 = DIRECTION ( 'NONE',  ( 0.0000000000000000000, 1.301042606982605300E-015, 1.000000000000000000 ) ) ;
#258 = DIRECTION ( 'NONE',  ( 0.0000000000000000000, 0.0000000000000000000, 1.000000000000000000 ) ) ;
#259 = PLANE ( 'NONE',  #64 ) ;
#260 = DIRECTION ( 'NONE',  ( 0.0000000000000000000, 1.000000000000000000, 0.0000000000000000000 ) ) ;
#261 = CARTESIAN_POINT ( 'NONE',  ( 0.0000000000000000000, 2.308262652999992800, 0.0000000000000000000 ) ) ;
#262 = FILL_AREA_STYLE_COLOUR ( '', #157 ) ;
#263 = DIRECTION ( 'NONE',  ( -0.0000000000000000000, 1.000000000000000000, 0.0000000000000000000 ) ) ;
#264 = DIRECTION ( 'NONE',  ( 1.000000000000000000, 8.326672684688674100E-015, 0.0000000000000000000 ) ) ;
#265 = DIRECTION ( 'NONE',  ( 0.0000000000000000000, -1.000000000000000000, 0.0000000000000000000 ) ) ;
#266 = CARTESIAN_POINT ( 'NONE',  ( 0.0000000000000000000, 4.191737346999957500, 0.0000000000000000000 ) ) ;
#267 = CARTESIAN_POINT ( 'NONE',  ( 5.204748896376250700E-016, 6.500000000000000900, 4.250000000000000000 ) ) ;
#268 = DIRECTION ( 'NONE',  ( 0.0000000000000000000, -1.000000000000000000, 0.0000000000000000000 ) ) ;
#269 = DIRECTION ( 'NONE',  ( 0.0000000000000000000, -1.000000000000000000, 0.0000000000000000000 ) ) ;
#270 = CARTESIAN_POINT ( 'NONE',  ( 0.0000000000000000000, 4.191737346999999200, -5.000000000000000000 ) ) ;
#271 = DIRECTION ( 'NONE',  ( 1.000000000000000000, 8.326672684688674100E-015, 0.0000000000000000000 ) ) ;
#272 = DIRECTION ( 'NONE',  ( 0.0000000000000000000, 0.0000000000000000000, 1.000000000000000000 ) ) ;
#273 = DIRECTION ( 'NONE',  ( 0.0000000000000000000, -1.000000000000000000, 0.0000000000000000000 ) ) ;
#274 = DIRECTION ( 'NONE',  ( 0.0000000000000000000, 1.301042606982605300E-015, 1.000000000000000000 ) ) ;
#275 = DIRECTION ( 'NONE',  ( 0.0000000000000000000, 1.000000000000000000, 0.0000000000000000000 ) ) ;
#276 = CARTESIAN_POINT ( 'NONE',  ( 0.0000000000000000000, 2.308262652999992800, 0.0000000000000000000 ) ) ;
#277 = CARTESIAN_POINT ( 'NONE',  ( 6.123233995736766300E-016, 4.191737346999999200, 5.000000000000000000 ) ) ;
#278 = CARTESIAN_POINT ( 'NONE',  ( 0.0000000000000000000, 0.0000000000000000000, 4.250000000000000000 ) ) ;
#279 = CARTESIAN_POINT ( 'NONE',  ( 0.0000000000000000000, 4.191737346999957500, 0.0000000000000000000 ) ) ;
#280 = DIRECTION ( 'NONE',  ( 0.0000000000000000000, 0.0000000000000000000, 1.000000000000000000 ) ) ;
#281 = DIRECTION ( 'NONE',  ( 0.0000000000000000000, -1.000000000000000000, -0.0000000000000000000 ) ) ;
#282 = CARTESIAN_POINT ( 'NONE',  ( 0.0000000000000000000, 0.0000000000000000000, 0.0000000000000000000 ) ) ;
#283 = CARTESIAN_POINT ( 'NONE',  ( 0.0000000000000000000, 0.0000000000000000000, 4.000000000000000000 ) ) ;
#284 = DIRECTION ( 'NONE',  ( 0.0000000000000000000, -1.000000000000000000, -0.0000000000000000000 ) ) ;
#285 = DIRECTION ( 'NONE',  ( 0.0000000000000000000, 0.0000000000000000000, 1.000000000000000000 ) ) ;
#286 = DIRECTION ( 'NONE',  ( 0.0000000000000000000, 0.9510565162998182400, 0.3090169943605909900 ) ) ;
#287 = CARTESIAN_POINT ( 'NONE',  ( 0.0000000000000000000, 0.0000000000000000000, 0.0000000000000000000 ) ) ;
#288 = DIRECTION ( 'NONE',  ( 0.0000000000000000000, -1.000000000000000000, -0.0000000000000000000 ) ) ;
#289 = DIRECTION ( 'NONE',  ( 3.784366730258331300E-017, -0.9510565162998183600, 0.3090169943605906000 ) ) ;
#290 = CARTESIAN_POINT ( 'NONE',  ( 5.204748896376250700E-016, 0.0000000000000000000, -4.250000000000000000 ) ) ;
#291 = DIRECTION ( 'NONE',  ( 0.0000000000000000000, 0.0000000000000000000, 1.000000000000000000 ) ) ;
#292 = CARTESIAN_POINT ( 'NONE',  ( 0.0000000000000000000, 0.0000000000000000000, 0.0000000000000000000 ) ) ;
#293 = DIRECTION ( 'NONE',  ( 0.0000000000000000000, 0.0000000000000000000, 1.000000000000000000 ) ) ;
#294 = CARTESIAN_POINT ( 'NONE',  ( 0.0000000000000000000, 0.0000000000000000000, 0.0000000000000000000 ) ) ;
#295 = DIRECTION ( 'NONE',  ( 3.784366730258333800E-017, 0.9510565162998182400, -0.3090169943605909900 ) ) ;
#296 = DIRECTION ( 'NONE',  ( -0.0000000000000000000, 1.000000000000000000, 0.0000000000000000000 ) ) ;
#297 = DIRECTION ( 'NONE',  ( -0.0000000000000000000, 1.000000000000000000, 0.0000000000000000000 ) ) ;
#298 = DIRECTION ( 'NONE',  ( 0.0000000000000000000, 0.0000000000000000000, 1.000000000000000000 ) ) ;
#299 = CARTESIAN_POINT ( 'NONE',  ( 0.0000000000000000000, 6.500000000000000900, 0.0000000000000000000 ) ) ;
#300 = DIRECTION ( 'NONE',  ( 0.0000000000000000000, 0.0000000000000000000, -1.000000000000000000 ) ) ;
#301 = DIRECTION ( 'NONE',  ( 0.0000000000000000000, -1.000000000000000000, 0.0000000000000000000 ) ) ;
#302 = DIRECTION ( 'NONE',  ( 0.0000000000000000000, 2.040851148208000400E-016, -1.000000000000000000 ) ) ;
#303 = DIRECTION ( 'NONE',  ( -0.0000000000000000000, 1.000000000000000000, 0.0000000000000000000 ) ) ;
#304 = DIRECTION ( 'NONE',  ( 0.0000000000000000000, 1.000000000000000000, 1.020425574104004100E-016 ) ) ;
#305 = CARTESIAN_POINT ( 'NONE',  ( -4.301000000000000200, 0.0000000000000000000, 4.301000000000000200 ) ) ;
#306 = DIRECTION ( 'NONE',  ( 0.0000000000000000000, 0.0000000000000000000, -1.000000000000000000 ) ) ;
#307 = CARTESIAN_POINT ( 'NONE',  ( 0.0000000000000000000, 6.499999999999950300, -5.133452976785601400E-030 ) ) ;
#308 = CARTESIAN_POINT ( 'NONE',  ( 0.0000000000000000000, 4.191737346999999200, 0.0000000000000000000 ) ) ;
#309 = DIRECTION ( 'NONE',  ( 0.0000000000000000000, -0.9510565162998182400, -0.3090169943605908200 ) ) ;
#310 = DIRECTION ( 'NONE',  ( 0.0000000000000000000, 0.0000000000000000000, 1.000000000000000000 ) ) ;
#311 = DIRECTION ( 'NONE',  ( -0.0000000000000000000, 1.000000000000000000, 0.0000000000000000000 ) ) ;
#312 = DIRECTION ( 'NONE',  ( -0.0000000000000000000, 1.000000000000000000, 0.0000000000000000000 ) ) ;
#313 = DIRECTION ( 'NONE',  ( 0.0000000000000000000, -1.000000000000000000, -0.0000000000000000000 ) ) ;
#314 = CARTESIAN_POINT ( 'NONE',  ( 0.0000000000000000000, 0.0000000000000000000, 0.0000000000000000000 ) ) ;
ENDSEC;
END-ISO-10303-21;
