ISO-10303-21;
HEADER;
FILE_DESCRIPTION (( 'STEP AP214' ),
    '1' );
FILE_NAME ('107400002X700A.STEP',
    '2013-02-25T17:21:55',
    ( '' ),
    ( '' ),
    'SwSTEP 2.0',
    'SolidWorks 2012',
    '' );
FILE_SCHEMA (( 'AUTOMOTIVE_DESIGN' ));
ENDSEC;

DATA;
#1 = ADVANCED_FACE ( 'NONE', ( #109 ), #100, .F. ) ;
#2 = ADVANCED_FACE ( 'NONE', ( #108 ), #89, .T. ) ;
#3 = ADVANCED_FACE ( 'NONE', ( #101 ), #87, .T. ) ;
#4 = ADVANCED_FACE ( 'NONE', ( #90 ), #82, .T. ) ;
#5 = ADVANCED_FACE ( 'NONE', ( #88 ), #102, .F. ) ;
#6 = ADVANCED_FACE ( 'NONE', ( #83, #81 ), #292, .T. ) ;
#7 = ADVANCED_FACE ( 'NONE', ( #113, #79 ), #272, .T. ) ;
#8 = ADVANCED_FACE ( 'NONE', ( #80 ), #74, .T. ) ;
#9 = ADVANCED_FACE ( 'NONE', ( #85 ), #72, .T. ) ;
#10 = ADVANCED_FACE ( 'NONE', ( #75 ), #70, .T. ) ;
#11 = ORIENTED_EDGE ( 'NONE', *, *, #140, .T. ) ;
#12 = SHAPE_DEFINITION_REPRESENTATION ( #328, #330 ) ;
#13 = ORIENTED_EDGE ( 'NONE', *, *, #192, .F. ) ;
#14 = ORIENTED_EDGE ( 'NONE', *, *, #166, .T. ) ;
#15 = ORIENTED_EDGE ( 'NONE', *, *, #171, .F. ) ;
#16 = PRESENTATION_STYLE_ASSIGNMENT (( #220 ) ) ;
#17 = SURFACE_STYLE_FILL_AREA ( #222 ) ;
#18 = COLOUR_RGB ( '',0.9882352941176471000, 0.8705882352941176600, 0.5490196078431373000 ) ;
#19 = ORIENTED_EDGE ( 'NONE', *, *, #193, .F. ) ;
#20 = ORIENTED_EDGE ( 'NONE', *, *, #151, .F. ) ;
#21 = ORIENTED_EDGE ( 'NONE', *, *, #146, .F. ) ;
#22 = ORIENTED_EDGE ( 'NONE', *, *, #146, .T. ) ;
#23 = ORIENTED_EDGE ( 'NONE', *, *, #192, .T. ) ;
#24 = ORIENTED_EDGE ( 'NONE', *, *, #139, .F. ) ;
#25 = ORIENTED_EDGE ( 'NONE', *, *, #148, .F. ) ;
#26 = ORIENTED_EDGE ( 'NONE', *, *, #168, .T. ) ;
#27 = ORIENTED_EDGE ( 'NONE', *, *, #145, .F. ) ;
#28 = ORIENTED_EDGE ( 'NONE', *, *, #188, .T. ) ;
#29 = ORIENTED_EDGE ( 'NONE', *, *, #145, .T. ) ;
#30 = VERTEX_POINT ( 'NONE', #241 ) ;
#31 = VERTEX_POINT ( 'NONE', #252 ) ;
#32 = ORIENTED_EDGE ( 'NONE', *, *, #169, .T. ) ;
#33 = ORIENTED_EDGE ( 'NONE', *, *, #139, .T. ) ;
#34 = ORIENTED_EDGE ( 'NONE', *, *, #195, .F. ) ;
#35 = ORIENTED_EDGE ( 'NONE', *, *, #148, .T. ) ;
#36 = EDGE_LOOP ( 'NONE', ( #32, #33, #107, #15 ) ) ;
#37 = ORIENTED_EDGE ( 'NONE', *, *, #167, .F. ) ;
#38 = ORIENTED_EDGE ( 'NONE', *, *, #196, .F. ) ;
#39 = ORIENTED_EDGE ( 'NONE', *, *, #184, .F. ) ;
#40 = ORIENTED_EDGE ( 'NONE', *, *, #166, .F. ) ;
#41 = PRESENTATION_STYLE_ASSIGNMENT (( #212 ) ) ;
#42 = SURFACE_STYLE_FILL_AREA ( #218 ) ;
#43 = VECTOR ( 'NONE', #232, 1000.000000000000200 ) ;
#44 = COLOUR_RGB ( '',0.9882352941176471000, 0.8705882352941176600, 0.5490196078431373000 ) ;
#45 = LINE ( 'NONE', #233, #43 ) ;
#46 = CIRCLE ( 'NONE', #178, 4.250000000000000000 ) ;
#47 = ORIENTED_EDGE ( 'NONE', *, *, #171, .T. ) ;
#48 = VECTOR ( 'NONE', #244, 1000.000000000000100 ) ;
#49 = CLOSED_SHELL ( 'NONE', ( #1, #10, #8, #3, #5, #7, #6, #9, #4, #2 ) ) ;
#50 = CIRCLE ( 'NONE', #181, 4.000000000000000000 ) ;
#51 = LINE ( 'NONE', #259, #48 ) ;
#52 = VECTOR ( 'NONE', #250, 1000.000000000000000 ) ;
#53 = CIRCLE ( 'NONE', #176, 4.250000000000016900 ) ;
#54 = CIRCLE ( 'NONE', #179, 5.000000000000000000 ) ;
#55 = CIRCLE ( 'NONE', #175, 4.250000000000000000 ) ;
#56 = VECTOR ( 'NONE', #264, 1000.000000000000000 ) ;
#57 = CIRCLE ( 'NONE', #174, 5.000000000000000000 ) ;
#58 = LINE ( 'NONE', #268, #56 ) ;
#59 = CIRCLE ( 'NONE', #177, 4.000000000000000000 ) ;
#60 = LINE ( 'NONE', #242, #52 ) ;
#61 = CIRCLE ( 'NONE', #173, 4.000000000000000000 ) ;
#62 = CIRCLE ( 'NONE', #165, 5.000000000000000000 ) ;
#63 = VECTOR ( 'NONE', #290, 1000.000000000000000 ) ;
#64 = CIRCLE ( 'NONE', #150, 5.000000000000000000 ) ;
#65 = CIRCLE ( 'NONE', #172, 4.000000000000000000 ) ;
#66 = VECTOR ( 'NONE', #308, 1000.000000000000200 ) ;
#67 = LINE ( 'NONE', #312, #69 ) ;
#68 = CIRCLE ( 'NONE', #152, 5.000000000000000000 ) ;
#69 = VECTOR ( 'NONE', #311, 1000.000000000000000 ) ;
#70 = CONICAL_SURFACE ( 'NONE', #153, 4.250000000000000000, 0.3141592653438837800 ) ;
#71 = CIRCLE ( 'NONE', #149, 4.250000000000016900 ) ;
#72 = CONICAL_SURFACE ( 'NONE', #155, 4.250000000000000000, 0.3141592653438837800 ) ;
#73 = LINE ( 'NONE', #299, #66 ) ;
#74 = CONICAL_SURFACE ( 'NONE', #156, 4.250000000000000000, 0.3141592653438841100 ) ;
#75 = FACE_OUTER_BOUND ( 'NONE', #112, .T. ) ;
#76 = VECTOR ( 'NONE', #293, 1000.000000000000200 ) ;
#77 = LINE ( 'NONE', #289, #63 ) ;
#78 = LINE ( 'NONE', #300, #76 ) ;
#79 = FACE_OUTER_BOUND ( 'NONE', #116, .T. ) ;
#80 = FACE_OUTER_BOUND ( 'NONE', #110, .T. ) ;
#81 = FACE_OUTER_BOUND ( 'NONE', #119, .T. ) ;
#82 = CONICAL_SURFACE ( 'NONE', #163, 4.250000000000000000, 0.3141592653438841100 ) ;
#83 = FACE_BOUND ( 'NONE', #115, .T. ) ;
#84 = CIRCLE ( 'NONE', #154, 5.000000000000000000 ) ;
#85 = FACE_OUTER_BOUND ( 'NONE', #123, .T. ) ;
#86 = ORIENTED_EDGE ( 'NONE', *, *, #193, .T. ) ;
#87 = CYLINDRICAL_SURFACE ( 'NONE', #160, 5.000000000000000000 ) ;
#88 = FACE_OUTER_BOUND ( 'NONE', #121, .T. ) ;
#89 = CYLINDRICAL_SURFACE ( 'NONE', #162, 5.000000000000000000 ) ;
#90 = FACE_OUTER_BOUND ( 'NONE', #118, .T. ) ;
#91 = ORIENTED_EDGE ( 'NONE', *, *, #195, .T. ) ;
#92 = ORIENTED_EDGE ( 'NONE', *, *, #169, .F. ) ;
#93 = ORIENTED_EDGE ( 'NONE', *, *, #140, .F. ) ;
#94 = ORIENTED_EDGE ( 'NONE', *, *, #184, .T. ) ;
#95 = ORIENTED_EDGE ( 'NONE', *, *, #170, .F. ) ;
#96 = ORIENTED_EDGE ( 'NONE', *, *, #151, .T. ) ;
#97 = ORIENTED_EDGE ( 'NONE', *, *, #197, .F. ) ;
#98 = ORIENTED_EDGE ( 'NONE', *, *, #168, .F. ) ;
#99 = ORIENTED_EDGE ( 'NONE', *, *, #197, .T. ) ;
#100 = CYLINDRICAL_SURFACE ( 'NONE', #161, 4.000000000000000000 ) ;
#101 = FACE_OUTER_BOUND ( 'NONE', #111, .T. ) ;
#102 = CYLINDRICAL_SURFACE ( 'NONE', #159, 4.000000000000000000 ) ;
#103 = ORIENTED_EDGE ( 'NONE', *, *, #164, .T. ) ;
#104 = ORIENTED_EDGE ( 'NONE', *, *, #194, .F. ) ;
#105 = ORIENTED_EDGE ( 'NONE', *, *, #196, .T. ) ;
#106 = ORIENTED_EDGE ( 'NONE', *, *, #164, .F. ) ;
#107 = ORIENTED_EDGE ( 'NONE', *, *, #170, .T. ) ;
#108 = FACE_OUTER_BOUND ( 'NONE', #125, .T. ) ;
#109 = FACE_OUTER_BOUND ( 'NONE', #36, .T. ) ;
#110 = EDGE_LOOP ( 'NONE', ( #34, #105, #27, #25 ) ) ;
#111 = EDGE_LOOP ( 'NONE', ( #126, #124, #28, #29, #106 ) ) ;
#112 = EDGE_LOOP ( 'NONE', ( #13, #86, #40, #114, #21 ) ) ;
#113 = FACE_BOUND ( 'NONE', #117, .T. ) ;
#114 = ORIENTED_EDGE ( 'NONE', *, *, #183, .F. ) ;
#115 = EDGE_LOOP ( 'NONE', ( #92, #97 ) ) ;
#116 = EDGE_LOOP ( 'NONE', ( #96, #23 ) ) ;
#117 = EDGE_LOOP ( 'NONE', ( #98, #95 ) ) ;
#118 = EDGE_LOOP ( 'NONE', ( #38, #39, #35, #37 ) ) ;
#119 = EDGE_LOOP ( 'NONE', ( #94, #91 ) ) ;
#120 = ORIENTED_EDGE ( 'NONE', *, *, #167, .T. ) ;
#121 = EDGE_LOOP ( 'NONE', ( #24, #99, #47, #26 ) ) ;
#122 = ORIENTED_EDGE ( 'NONE', *, *, #188, .F. ) ;
#123 = EDGE_LOOP ( 'NONE', ( #19, #20, #22, #104, #93 ) ) ;
#124 = ORIENTED_EDGE ( 'NONE', *, *, #183, .T. ) ;
#125 = EDGE_LOOP ( 'NONE', ( #122, #14, #11, #103, #120 ) ) ;
#126 = ORIENTED_EDGE ( 'NONE', *, *, #194, .T. ) ;
#127 = VERTEX_POINT ( 'NONE', #327 ) ;
#128 = VERTEX_POINT ( 'NONE', #243 ) ;
#129 = VERTEX_POINT ( 'NONE', #324 ) ;
#130 = VERTEX_POINT ( 'NONE', #237 ) ;
#131 = VERTEX_POINT ( 'NONE', #323 ) ;
#132 = VERTEX_POINT ( 'NONE', #225 ) ;
#133 = VERTEX_POINT ( 'NONE', #321 ) ;
#134 = VERTEX_POINT ( 'NONE', #246 ) ;
#135 = VERTEX_POINT ( 'NONE', #320 ) ;
#136 = VERTEX_POINT ( 'NONE', #319 ) ;
#137 = VERTEX_POINT ( 'NONE', #315 ) ;
#138 = VERTEX_POINT ( 'NONE', #314 ) ;
#139 = EDGE_CURVE ( 'NONE', #137, #30, #67, .T. ) ;
#140 = EDGE_CURVE ( 'NONE', #130, #127, #84, .T. ) ;
#141 = PRESENTATION_LAYER_ASSIGNMENT (  '', '', ( #185 ) ) ;
#142 =( GEOMETRIC_REPRESENTATION_CONTEXT ( 3 ) GLOBAL_UNCERTAINTY_ASSIGNED_CONTEXT ( ( #331 ) ) GLOBAL_UNIT_ASSIGNED_CONTEXT ( ( #204, #203, #201 ) ) REPRESENTATION_CONTEXT ( 'NONE', 'WORKASPACE' ) );
#143 = MECHANICAL_DESIGN_GEOMETRIC_PRESENTATION_REPRESENTATION (  '', ( #185 ), #142 ) ;
#144 = AXIS2_PLACEMENT_3D ( 'NONE', #200, #207, #208 ) ;
#145 = EDGE_CURVE ( 'NONE', #136, #129, #68, .T. ) ;
#146 = EDGE_CURVE ( 'NONE', #132, #134, #73, .T. ) ;
#147 = PRODUCT_DEFINITION ( 'NON CONOSCIUTO', '', #189, #329 ) ;
#148 = EDGE_CURVE ( 'NONE', #128, #136, #78, .T. ) ;
#149 = AXIS2_PLACEMENT_3D ( 'NONE', #288, #287, #286 ) ;
#150 = AXIS2_PLACEMENT_3D ( 'NONE', #284, #283, #282 ) ;
#151 = EDGE_CURVE ( 'NONE', #132, #135, #71, .T. ) ;
#152 = AXIS2_PLACEMENT_3D ( 'NONE', #298, #297, #295 ) ;
#153 = AXIS2_PLACEMENT_3D ( 'NONE', #253, #248, #254 ) ;
#154 = AXIS2_PLACEMENT_3D ( 'NONE', #307, #303, #301 ) ;
#155 = AXIS2_PLACEMENT_3D ( 'NONE', #265, #261, #266 ) ;
#156 = AXIS2_PLACEMENT_3D ( 'NONE', #267, #277, #274 ) ;
#157 = AXIS2_PLACEMENT_3D ( 'NONE', #279, #281, #269 ) ;
#158 = AXIS2_PLACEMENT_3D ( 'NONE', #285, #291, #280 ) ;
#159 = AXIS2_PLACEMENT_3D ( 'NONE', #296, #294, #302 ) ;
#160 = AXIS2_PLACEMENT_3D ( 'NONE', #316, #306, #322 ) ;
#161 = AXIS2_PLACEMENT_3D ( 'NONE', #317, #309, #313 ) ;
#162 = AXIS2_PLACEMENT_3D ( 'NONE', #318, #325, #326 ) ;
#163 = AXIS2_PLACEMENT_3D ( 'NONE', #304, #310, #305 ) ;
#164 = EDGE_CURVE ( 'NONE', #127, #129, #77, .T. ) ;
#165 = AXIS2_PLACEMENT_3D ( 'NONE', #278, #276, #275 ) ;
#166 = EDGE_CURVE ( 'NONE', #133, #130, #64, .T. ) ;
#167 = EDGE_CURVE ( 'NONE', #129, #136, #62, .T. ) ;
#168 = EDGE_CURVE ( 'NONE', #31, #30, #61, .T. ) ;
#169 = EDGE_CURVE ( 'NONE', #131, #137, #65, .T. ) ;
#170 = EDGE_CURVE ( 'NONE', #30, #31, #59, .T. ) ;
#171 = EDGE_CURVE ( 'NONE', #131, #31, #58, .T. ) ;
#172 = AXIS2_PLACEMENT_3D ( 'NONE', #263, #262, #260 ) ;
#173 = AXIS2_PLACEMENT_3D ( 'NONE', #273, #271, #270 ) ;
#174 = AXIS2_PLACEMENT_3D ( 'NONE', #249, #247, #245 ) ;
#175 = AXIS2_PLACEMENT_3D ( 'NONE', #240, #239, #238 ) ;
#176 = AXIS2_PLACEMENT_3D ( 'NONE', #236, #235, #234 ) ;
#177 = AXIS2_PLACEMENT_3D ( 'NONE', #258, #257, #256 ) ;
#178 = AXIS2_PLACEMENT_3D ( 'NONE', #226, #224, #223 ) ;
#179 = AXIS2_PLACEMENT_3D ( 'NONE', #231, #230, #229 ) ;
#180 = STYLED_ITEM ( 'NONE', ( #41 ), #334 ) ;
#181 = AXIS2_PLACEMENT_3D ( 'NONE', #216, #215, #214 ) ;
#182 = MECHANICAL_DESIGN_GEOMETRIC_PRESENTATION_REPRESENTATION (  '', ( #180 ), #187 ) ;
#183 = EDGE_CURVE ( 'NONE', #134, #133, #57, .T. ) ;
#184 = EDGE_CURVE ( 'NONE', #128, #138, #55, .T. ) ;
#185 = STYLED_ITEM ( 'NONE', ( #16 ), #330 ) ;
#186 = PRODUCT_RELATED_PRODUCT_CATEGORY ( 'part', '', ( #199 ) ) ;
#187 =( GEOMETRIC_REPRESENTATION_CONTEXT ( 3 ) GLOBAL_UNCERTAINTY_ASSIGNED_CONTEXT ( ( #332 ) ) GLOBAL_UNIT_ASSIGNED_CONTEXT ( ( #211, #210, #209 ) ) REPRESENTATION_CONTEXT ( 'NONE', 'WORKASPACE' ) );
#188 = EDGE_CURVE ( 'NONE', #133, #136, #60, .T. ) ;
#189 = PRODUCT_DEFINITION_FORMATION_WITH_SPECIFIED_SOURCE ( 'TUTTO', '', #199, .NOT_KNOWN. ) ;
#190 =( GEOMETRIC_REPRESENTATION_CONTEXT ( 3 ) GLOBAL_UNCERTAINTY_ASSIGNED_CONTEXT ( ( #333 ) ) GLOBAL_UNIT_ASSIGNED_CONTEXT ( ( #221, #206, #205 ) ) REPRESENTATION_CONTEXT ( 'NONE', 'WORKASPACE' ) );
#191 = PRESENTATION_LAYER_ASSIGNMENT (  '', '', ( #180 ) ) ;
#192 = EDGE_CURVE ( 'NONE', #135, #132, #53, .T. ) ;
#193 = EDGE_CURVE ( 'NONE', #135, #130, #51, .T. ) ;
#194 = EDGE_CURVE ( 'NONE', #127, #134, #54, .T. ) ;
#195 = EDGE_CURVE ( 'NONE', #138, #128, #46, .T. ) ;
#196 = EDGE_CURVE ( 'NONE', #138, #129, #45, .T. ) ;
#197 = EDGE_CURVE ( 'NONE', #137, #131, #50, .T. ) ;
#198 = APPLICATION_PROTOCOL_DEFINITION ( 'draft international standard', 'automotive_design', 1998, #251 ) ;
#199 = PRODUCT ( '107400002X700A', '107400002X700A', '', ( #255 ) ) ;
#200 = CARTESIAN_POINT ( 'NONE',  ( 0.0000000000000000000, 0.0000000000000000000, 0.0000000000000000000 ) ) ;
#201 =( NAMED_UNIT ( * ) SI_UNIT ( $, .STERADIAN. ) SOLID_ANGLE_UNIT ( ) );
#202 = APPLICATION_PROTOCOL_DEFINITION ( 'draft international standard', 'automotive_design', 1998, #228 ) ;
#203 =( NAMED_UNIT ( * ) PLANE_ANGLE_UNIT ( ) SI_UNIT ( $, .RADIAN. ) );
#204 =( LENGTH_UNIT ( ) NAMED_UNIT ( * ) SI_UNIT ( .MILLI., .METRE. ) );
#205 =( NAMED_UNIT ( * ) SI_UNIT ( $, .STERADIAN. ) SOLID_ANGLE_UNIT ( ) );
#206 =( NAMED_UNIT ( * ) PLANE_ANGLE_UNIT ( ) SI_UNIT ( $, .RADIAN. ) );
#207 = DIRECTION ( 'NONE',  ( 0.0000000000000000000, 0.0000000000000000000, 1.000000000000000000 ) ) ;
#208 = DIRECTION ( 'NONE',  ( 1.000000000000000000, 0.0000000000000000000, 0.0000000000000000000 ) ) ;
#209 =( NAMED_UNIT ( * ) SI_UNIT ( $, .STERADIAN. ) SOLID_ANGLE_UNIT ( ) );
#210 =( NAMED_UNIT ( * ) PLANE_ANGLE_UNIT ( ) SI_UNIT ( $, .RADIAN. ) );
#211 =( LENGTH_UNIT ( ) NAMED_UNIT ( * ) SI_UNIT ( .MILLI., .METRE. ) );
#212 = SURFACE_STYLE_USAGE ( .BOTH. , #213 ) ;
#213 = SURFACE_SIDE_STYLE ('',( #42 ) ) ;
#214 = DIRECTION ( 'NONE',  ( 0.0000000000000000000, 0.0000000000000000000, 1.000000000000000000 ) ) ;
#215 = DIRECTION ( 'NONE',  ( -0.0000000000000000000, -1.000000000000000000, -0.0000000000000000000 ) ) ;
#216 = CARTESIAN_POINT ( 'NONE',  ( 0.0000000000000000000, 0.0000000000000000000, 0.0000000000000000000 ) ) ;
#217 = FILL_AREA_STYLE_COLOUR ( '', #18 ) ;
#218 = FILL_AREA_STYLE ('',( #219 ) ) ;
#219 = FILL_AREA_STYLE_COLOUR ( '', #44 ) ;
#220 = SURFACE_STYLE_USAGE ( .BOTH. , #227 ) ;
#221 =( LENGTH_UNIT ( ) NAMED_UNIT ( * ) SI_UNIT ( .MILLI., .METRE. ) );
#222 = FILL_AREA_STYLE ('',( #217 ) ) ;
#223 = DIRECTION ( 'NONE',  ( 0.0000000000000000000, 0.0000000000000000000, 1.000000000000000000 ) ) ;
#224 = DIRECTION ( 'NONE',  ( 0.0000000000000000000, -1.000000000000000000, -0.0000000000000000000 ) ) ;
#225 = CARTESIAN_POINT ( 'NONE',  ( 4.250000000000016900, 6.499999999999949400, 0.0000000000000000000 ) ) ;
#226 = CARTESIAN_POINT ( 'NONE',  ( 0.0000000000000000000, 0.0000000000000000000, 0.0000000000000000000 ) ) ;
#227 = SURFACE_SIDE_STYLE ('',( #17 ) ) ;
#228 = APPLICATION_CONTEXT ( 'automotive_design' ) ;
#229 = DIRECTION ( 'NONE',  ( 0.0000000000000000000, 8.326672684688674100E-015, -1.000000000000000000 ) ) ;
#230 = DIRECTION ( 'NONE',  ( 0.0000000000000000000, -1.000000000000000000, 0.0000000000000000000 ) ) ;
#231 = CARTESIAN_POINT ( 'NONE',  ( 0.0000000000000000000, 4.191737346999957500, 0.0000000000000000000 ) ) ;
#232 = DIRECTION ( 'NONE',  ( 3.784366730258333800E-017, 0.9510565162998182400, -0.3090169943605909900 ) ) ;
#233 = CARTESIAN_POINT ( 'NONE',  ( 5.204748896376250700E-016, 0.0000000000000000000, -4.250000000000000000 ) ) ;
#234 = DIRECTION ( 'NONE',  ( 1.000000000000000000, -2.040851148208000400E-016, 0.0000000000000000000 ) ) ;
#235 = DIRECTION ( 'NONE',  ( 1.020425574104004100E-016, 1.000000000000000000, -0.0000000000000000000 ) ) ;
#236 = CARTESIAN_POINT ( 'NONE',  ( -5.133452976775395700E-030, 6.499999999999950300, 0.0000000000000000000 ) ) ;
#237 = CARTESIAN_POINT ( 'NONE',  ( -5.000000000000014200, 4.191737346999957500, 6.123233995736782100E-016 ) ) ;
#238 = DIRECTION ( 'NONE',  ( 0.0000000000000000000, 0.0000000000000000000, 1.000000000000000000 ) ) ;
#239 = DIRECTION ( 'NONE',  ( 0.0000000000000000000, -1.000000000000000000, -0.0000000000000000000 ) ) ;
#240 = CARTESIAN_POINT ( 'NONE',  ( 0.0000000000000000000, 0.0000000000000000000, 0.0000000000000000000 ) ) ;
#241 = CARTESIAN_POINT ( 'NONE',  ( 4.898587196589412800E-016, 6.500000000000000900, -4.000000000000000000 ) ) ;
#242 = CARTESIAN_POINT ( 'NONE',  ( 6.123233995736766300E-016, 4.191737346999999200, 5.000000000000000000 ) ) ;
#243 = CARTESIAN_POINT ( 'NONE',  ( 0.0000000000000000000, 0.0000000000000000000, 4.250000000000000000 ) ) ;
#244 = DIRECTION ( 'NONE',  ( -0.3090169943605908200, -0.9510565162998182400, 3.784366730258331300E-017 ) ) ;
#245 = DIRECTION ( 'NONE',  ( 0.0000000000000000000, 8.326672684688674100E-015, -1.000000000000000000 ) ) ;
#246 = CARTESIAN_POINT ( 'NONE',  ( 5.000000000000013300, 4.191737346999957500, 0.0000000000000000000 ) ) ;
#247 = DIRECTION ( 'NONE',  ( 0.0000000000000000000, -1.000000000000000000, 0.0000000000000000000 ) ) ;
#248 = DIRECTION ( 'NONE',  ( -1.020425574104004100E-016, -1.000000000000000000, 0.0000000000000000000 ) ) ;
#249 = CARTESIAN_POINT ( 'NONE',  ( 0.0000000000000000000, 4.191737346999957500, 0.0000000000000000000 ) ) ;
#250 = DIRECTION ( 'NONE',  ( 0.0000000000000000000, -1.000000000000000000, 0.0000000000000000000 ) ) ;
#251 = APPLICATION_CONTEXT ( 'automotive_design' ) ;
#252 = CARTESIAN_POINT ( 'NONE',  ( 0.0000000000000000000, 6.500000000000000900, 4.000000000000000000 ) ) ;
#253 = CARTESIAN_POINT ( 'NONE',  ( 0.0000000000000000000, 6.500000000000000900, 0.0000000000000000000 ) ) ;
#254 = DIRECTION ( 'NONE',  ( 1.000000000000000000, 0.0000000000000000000, 0.0000000000000000000 ) ) ;
#255 = PRODUCT_CONTEXT ( 'NONE', #228, 'mechanical' ) ;
#256 = DIRECTION ( 'NONE',  ( 0.0000000000000000000, 0.0000000000000000000, 1.000000000000000000 ) ) ;
#257 = DIRECTION ( 'NONE',  ( 0.0000000000000000000, 1.000000000000000000, 0.0000000000000000000 ) ) ;
#258 = CARTESIAN_POINT ( 'NONE',  ( 0.0000000000000000000, 6.500000000000000900, 0.0000000000000000000 ) ) ;
#259 = CARTESIAN_POINT ( 'NONE',  ( -4.250000000000000000, 6.500000000000000900, 5.204748896376250700E-016 ) ) ;
#260 = DIRECTION ( 'NONE',  ( 0.0000000000000000000, 0.0000000000000000000, 1.000000000000000000 ) ) ;
#261 = DIRECTION ( 'NONE',  ( -1.020425574104004100E-016, -1.000000000000000000, 0.0000000000000000000 ) ) ;
#262 = DIRECTION ( 'NONE',  ( -0.0000000000000000000, -1.000000000000000000, -0.0000000000000000000 ) ) ;
#263 = CARTESIAN_POINT ( 'NONE',  ( 0.0000000000000000000, 0.0000000000000000000, 0.0000000000000000000 ) ) ;
#264 = DIRECTION ( 'NONE',  ( 0.0000000000000000000, 1.000000000000000000, 0.0000000000000000000 ) ) ;
#265 = CARTESIAN_POINT ( 'NONE',  ( 0.0000000000000000000, 6.500000000000000900, 0.0000000000000000000 ) ) ;
#266 = DIRECTION ( 'NONE',  ( 1.000000000000000000, 0.0000000000000000000, 0.0000000000000000000 ) ) ;
#267 = CARTESIAN_POINT ( 'NONE',  ( 0.0000000000000000000, 0.0000000000000000000, 0.0000000000000000000 ) ) ;
#268 = CARTESIAN_POINT ( 'NONE',  ( 0.0000000000000000000, 0.0000000000000000000, 4.000000000000000000 ) ) ;
#269 = DIRECTION ( 'NONE',  ( 0.0000000000000000000, 0.0000000000000000000, 1.000000000000000000 ) ) ;
#270 = DIRECTION ( 'NONE',  ( 0.0000000000000000000, 0.0000000000000000000, 1.000000000000000000 ) ) ;
#271 = DIRECTION ( 'NONE',  ( 0.0000000000000000000, 1.000000000000000000, 0.0000000000000000000 ) ) ;
#272 = PLANE ( 'NONE',  #157 ) ;
#273 = CARTESIAN_POINT ( 'NONE',  ( 0.0000000000000000000, 6.500000000000000900, 0.0000000000000000000 ) ) ;
#274 = DIRECTION ( 'NONE',  ( 0.0000000000000000000, 0.0000000000000000000, 1.000000000000000000 ) ) ;
#275 = DIRECTION ( 'NONE',  ( 0.0000000000000000000, 1.301042606982605300E-015, 1.000000000000000000 ) ) ;
#276 = DIRECTION ( 'NONE',  ( 0.0000000000000000000, 1.000000000000000000, 0.0000000000000000000 ) ) ;
#277 = DIRECTION ( 'NONE',  ( -0.0000000000000000000, 1.000000000000000000, 0.0000000000000000000 ) ) ;
#278 = CARTESIAN_POINT ( 'NONE',  ( 0.0000000000000000000, 2.308262652999992800, 0.0000000000000000000 ) ) ;
#279 = CARTESIAN_POINT ( 'NONE',  ( -4.301000000000000200, 6.500000000000000900, -4.301000000000000200 ) ) ;
#280 = DIRECTION ( 'NONE',  ( 0.0000000000000000000, 0.0000000000000000000, -1.000000000000000000 ) ) ;
#281 = DIRECTION ( 'NONE',  ( 0.0000000000000000000, 1.000000000000000000, 0.0000000000000000000 ) ) ;
#282 = DIRECTION ( 'NONE',  ( 0.0000000000000000000, 8.326672684688674100E-015, -1.000000000000000000 ) ) ;
#283 = DIRECTION ( 'NONE',  ( 0.0000000000000000000, -1.000000000000000000, 0.0000000000000000000 ) ) ;
#284 = CARTESIAN_POINT ( 'NONE',  ( 0.0000000000000000000, 4.191737346999957500, 0.0000000000000000000 ) ) ;
#285 = CARTESIAN_POINT ( 'NONE',  ( -4.301000000000000200, 0.0000000000000000000, 4.301000000000000200 ) ) ;
#286 = DIRECTION ( 'NONE',  ( 1.000000000000000000, -2.040851148208000400E-016, 0.0000000000000000000 ) ) ;
#287 = DIRECTION ( 'NONE',  ( 1.020425574104004100E-016, 1.000000000000000000, -0.0000000000000000000 ) ) ;
#288 = CARTESIAN_POINT ( 'NONE',  ( -5.133452976775395700E-030, 6.499999999999950300, 0.0000000000000000000 ) ) ;
#289 = CARTESIAN_POINT ( 'NONE',  ( 0.0000000000000000000, 4.191737346999999200, -5.000000000000000000 ) ) ;
#290 = DIRECTION ( 'NONE',  ( 0.0000000000000000000, -1.000000000000000000, 0.0000000000000000000 ) ) ;
#291 = DIRECTION ( 'NONE',  ( 0.0000000000000000000, -1.000000000000000000, 0.0000000000000000000 ) ) ;
#292 = PLANE ( 'NONE',  #158 ) ;
#293 = DIRECTION ( 'NONE',  ( 0.0000000000000000000, 0.9510565162998182400, 0.3090169943605909900 ) ) ;
#294 = DIRECTION ( 'NONE',  ( 0.0000000000000000000, 1.000000000000000000, 0.0000000000000000000 ) ) ;
#295 = DIRECTION ( 'NONE',  ( 0.0000000000000000000, 1.301042606982605300E-015, 1.000000000000000000 ) ) ;
#296 = CARTESIAN_POINT ( 'NONE',  ( 0.0000000000000000000, 0.0000000000000000000, 0.0000000000000000000 ) ) ;
#297 = DIRECTION ( 'NONE',  ( 0.0000000000000000000, 1.000000000000000000, 0.0000000000000000000 ) ) ;
#298 = CARTESIAN_POINT ( 'NONE',  ( 0.0000000000000000000, 2.308262652999992800, 0.0000000000000000000 ) ) ;
#299 = CARTESIAN_POINT ( 'NONE',  ( 4.250000000000000000, 6.500000000000000900, 0.0000000000000000000 ) ) ;
#300 = CARTESIAN_POINT ( 'NONE',  ( 0.0000000000000000000, 0.0000000000000000000, 4.250000000000000000 ) ) ;
#301 = DIRECTION ( 'NONE',  ( 0.0000000000000000000, 8.326672684688674100E-015, -1.000000000000000000 ) ) ;
#302 = DIRECTION ( 'NONE',  ( 0.0000000000000000000, 0.0000000000000000000, 1.000000000000000000 ) ) ;
#303 = DIRECTION ( 'NONE',  ( 0.0000000000000000000, -1.000000000000000000, 0.0000000000000000000 ) ) ;
#304 = CARTESIAN_POINT ( 'NONE',  ( 0.0000000000000000000, 0.0000000000000000000, 0.0000000000000000000 ) ) ;
#305 = DIRECTION ( 'NONE',  ( 0.0000000000000000000, 0.0000000000000000000, 1.000000000000000000 ) ) ;
#306 = DIRECTION ( 'NONE',  ( 0.0000000000000000000, -1.000000000000000000, 0.0000000000000000000 ) ) ;
#307 = CARTESIAN_POINT ( 'NONE',  ( 0.0000000000000000000, 4.191737346999957500, 0.0000000000000000000 ) ) ;
#308 = DIRECTION ( 'NONE',  ( 0.3090169943605906000, -0.9510565162998183600, 0.0000000000000000000 ) ) ;
#309 = DIRECTION ( 'NONE',  ( 0.0000000000000000000, 1.000000000000000000, 0.0000000000000000000 ) ) ;
#310 = DIRECTION ( 'NONE',  ( -0.0000000000000000000, 1.000000000000000000, 0.0000000000000000000 ) ) ;
#311 = DIRECTION ( 'NONE',  ( 0.0000000000000000000, 1.000000000000000000, 0.0000000000000000000 ) ) ;
#312 = CARTESIAN_POINT ( 'NONE',  ( 4.898587196589412800E-016, 0.0000000000000000000, -4.000000000000000000 ) ) ;
#313 = DIRECTION ( 'NONE',  ( 0.0000000000000000000, 0.0000000000000000000, 1.000000000000000000 ) ) ;
#314 = CARTESIAN_POINT ( 'NONE',  ( 5.663991446056508500E-016, 0.0000000000000000000, -4.250000000000000000 ) ) ;
#315 = CARTESIAN_POINT ( 'NONE',  ( 4.898587196589412800E-016, 0.0000000000000000000, -4.000000000000000000 ) ) ;
#316 = CARTESIAN_POINT ( 'NONE',  ( 0.0000000000000000000, 4.191737346999999200, 0.0000000000000000000 ) ) ;
#317 = CARTESIAN_POINT ( 'NONE',  ( 0.0000000000000000000, 0.0000000000000000000, 0.0000000000000000000 ) ) ;
#318 = CARTESIAN_POINT ( 'NONE',  ( 0.0000000000000000000, 4.191737346999999200, 0.0000000000000000000 ) ) ;
#319 = CARTESIAN_POINT ( 'NONE',  ( 6.123233995736766300E-016, 2.308262652999992800, 5.000000000000000000 ) ) ;
#320 = CARTESIAN_POINT ( 'NONE',  ( -4.250000000000016900, 6.499999999999951200, 5.663991446056519300E-016 ) ) ;
#321 = CARTESIAN_POINT ( 'NONE',  ( 6.123233995736766300E-016, 4.191737346999957500, 5.000000000000000000 ) ) ;
#322 = DIRECTION ( 'NONE',  ( 0.0000000000000000000, 0.0000000000000000000, -1.000000000000000000 ) ) ;
#323 = CARTESIAN_POINT ( 'NONE',  ( 0.0000000000000000000, 0.0000000000000000000, 4.000000000000000000 ) ) ;
#324 = CARTESIAN_POINT ( 'NONE',  ( 0.0000000000000000000, 2.308262652999992800, -5.000000000000000000 ) ) ;
#325 = DIRECTION ( 'NONE',  ( 0.0000000000000000000, -1.000000000000000000, 0.0000000000000000000 ) ) ;
#326 = DIRECTION ( 'NONE',  ( 0.0000000000000000000, 0.0000000000000000000, -1.000000000000000000 ) ) ;
#327 = CARTESIAN_POINT ( 'NONE',  ( 0.0000000000000000000, 4.191737346999999200, -5.000000000000000000 ) ) ;
#328 = PRODUCT_DEFINITION_SHAPE ( 'NONE', 'NONE',  #147 ) ;
#329 = PRODUCT_DEFINITION_CONTEXT ( 'detailed design', #251, 'design' ) ;
#330 = ADVANCED_BREP_SHAPE_REPRESENTATION ( '107400002X700A', ( #334, #144 ), #190 ) ;
#331 = UNCERTAINTY_MEASURE_WITH_UNIT (LENGTH_MEASURE( 1.000000000000000100E-005 ), #204, 'distance_accuracy_value', 'NONE');
#332 = UNCERTAINTY_MEASURE_WITH_UNIT (LENGTH_MEASURE( 1.000000000000000100E-005 ), #211, 'distance_accuracy_value', 'NONE');
#333 = UNCERTAINTY_MEASURE_WITH_UNIT (LENGTH_MEASURE( 1.000000000000000100E-005 ), #221, 'distance_accuracy_value', 'NONE');
#334 = MANIFOLD_SOLID_BREP ( 'Importato1', #49 ) ;
ENDSEC;
END-ISO-10303-21;
