ISO-10303-21;
HEADER;
FILE_DESCRIPTION (( 'STEP AP214' ),
    '1' );
FILE_NAME ('107600002X900A.STEP',
    '2013-02-25T17:25:53',
    ( '' ),
    ( '' ),
    'SwSTEP 2.0',
    'SolidWorks 2012',
    '' );
FILE_SCHEMA (( 'AUTOMOTIVE_DESIGN' ));
ENDSEC;

DATA;
#1 = ADVANCED_FACE ( 'NONE', ( #94 ), #91, .T. ) ;
#2 = ADVANCED_FACE ( 'NONE', ( #21 ), #89, .T. ) ;
#3 = ADVANCED_FACE ( 'NONE', ( #90, #88 ), #287, .T. ) ;
#4 = ADVANCED_FACE ( 'NONE', ( #13, #86 ), #281, .T. ) ;
#5 = ADVANCED_FACE ( 'NONE', ( #87 ), #81, .T. ) ;
#6 = ADVANCED_FACE ( 'NONE', ( #22 ), #79, .T. ) ;
#7 = ADVANCED_FACE ( 'NONE', ( #82 ), #83, .F. ) ;
#8 = ADVANCED_FACE ( 'NONE', ( #80 ), #75, .T. ) ;
#9 = ADVANCED_FACE ( 'NONE', ( #84 ), #73, .T. ) ;
#10 = ADVANCED_FACE ( 'NONE', ( #76 ), #77, .F. ) ;
#11 = ORIENTED_EDGE ( 'NONE', *, *, #177, .F. ) ;
#12 = ORIENTED_EDGE ( 'NONE', *, *, #178, .T. ) ;
#13 = FACE_BOUND ( 'NONE', #47, .T. ) ;
#14 = ORIENTED_EDGE ( 'NONE', *, *, #174, .F. ) ;
#15 = ORIENTED_EDGE ( 'NONE', *, *, #176, .F. ) ;
#16 = ORIENTED_EDGE ( 'NONE', *, *, #175, .T. ) ;
#17 = VERTEX_POINT ( 'NONE', #247 ) ;
#18 = EDGE_LOOP ( 'NONE', ( #105, #34 ) ) ;
#19 = SHAPE_DEFINITION_REPRESENTATION ( #188, #189 ) ;
#20 = VERTEX_POINT ( 'NONE', #255 ) ;
#21 = FACE_OUTER_BOUND ( 'NONE', #97, .T. ) ;
#22 = FACE_OUTER_BOUND ( 'NONE', #100, .T. ) ;
#23 = ORIENTED_EDGE ( 'NONE', *, *, #174, .T. ) ;
#24 = ORIENTED_EDGE ( 'NONE', *, *, #184, .T. ) ;
#25 = ORIENTED_EDGE ( 'NONE', *, *, #168, .T. ) ;
#26 = EDGE_LOOP ( 'NONE', ( #124, #125, #117, #103 ) ) ;
#27 = ORIENTED_EDGE ( 'NONE', *, *, #145, .F. ) ;
#28 = ORIENTED_EDGE ( 'NONE', *, *, #184, .F. ) ;
#29 = EDGE_LOOP ( 'NONE', ( #11, #12, #113, #126 ) ) ;
#30 = ORIENTED_EDGE ( 'NONE', *, *, #148, .F. ) ;
#31 = VERTEX_POINT ( 'NONE', #246 ) ;
#32 = CIRCLE ( 'NONE', #158, 6.000000000000000000 ) ;
#33 = LINE ( 'NONE', #231, #38 ) ;
#34 = ORIENTED_EDGE ( 'NONE', *, *, #177, .T. ) ;
#35 = VERTEX_POINT ( 'NONE', #248 ) ;
#36 = PRESENTATION_STYLE_ASSIGNMENT (( #217 ) ) ;
#37 = COLOUR_RGB ( '',1.000000000000000000, 1.000000000000000000, 1.000000000000000000 ) ;
#38 = VECTOR ( 'NONE', #230, 1000.000000000000000 ) ;
#39 = ORIENTED_EDGE ( 'NONE', *, *, #164, .T. ) ;
#40 = VERTEX_POINT ( 'NONE', #266 ) ;
#41 = ORIENTED_EDGE ( 'NONE', *, *, #170, .F. ) ;
#42 = VERTEX_POINT ( 'NONE', #309 ) ;
#43 = ORIENTED_EDGE ( 'NONE', *, *, #150, .F. ) ;
#44 = ORIENTED_EDGE ( 'NONE', *, *, #170, .T. ) ;
#45 = ORIENTED_EDGE ( 'NONE', *, *, #145, .T. ) ;
#46 = ORIENTED_EDGE ( 'NONE', *, *, #163, .F. ) ;
#47 = EDGE_LOOP ( 'NONE', ( #14, #115 ) ) ;
#48 = VERTEX_POINT ( 'NONE', #220 ) ;
#49 = VECTOR ( 'NONE', #239, 1000.000000000000200 ) ;
#50 = SURFACE_STYLE_FILL_AREA ( #219 ) ;
#51 = VERTEX_POINT ( 'NONE', #210 ) ;
#52 = VECTOR ( 'NONE', #272, 1000.000000000000000 ) ;
#53 = CIRCLE ( 'NONE', #154, 5.249999999999980500 ) ;
#54 = CIRCLE ( 'NONE', #155, 5.000000000000000000 ) ;
#55 = CIRCLE ( 'NONE', #156, 5.250000000000000000 ) ;
#56 = LINE ( 'NONE', #240, #49 ) ;
#57 = VERTEX_POINT ( 'NONE', #196 ) ;
#58 = CIRCLE ( 'NONE', #153, 5.000000000000000000 ) ;
#59 = CIRCLE ( 'NONE', #157, 5.000000000000000000 ) ;
#60 = CIRCLE ( 'NONE', #152, 6.000000000000000000 ) ;
#61 = LINE ( 'NONE', #274, #52 ) ;
#62 = CIRCLE ( 'NONE', #159, 6.000000000000000000 ) ;
#63 = VECTOR ( 'NONE', #304, 1000.000000000000100 ) ;
#64 = CIRCLE ( 'NONE', #172, 5.000000000000000000 ) ;
#65 = VECTOR ( 'NONE', #302, 1000.000000000000200 ) ;
#66 = CIRCLE ( 'NONE', #147, 5.249999999999980500 ) ;
#67 = CIRCLE ( 'NONE', #135, 5.250000000000000000 ) ;
#68 = VECTOR ( 'NONE', #308, 1000.000000000000000 ) ;
#69 = LINE ( 'NONE', #312, #63 ) ;
#70 = LINE ( 'NONE', #306, #65 ) ;
#71 = VECTOR ( 'NONE', #305, 1000.000000000000000 ) ;
#72 = CIRCLE ( 'NONE', #137, 6.000000000000000000 ) ;
#73 = CONICAL_SURFACE ( 'NONE', #139, 5.250000000000000000, 0.3141592653438838900 ) ;
#74 = VECTOR ( 'NONE', #245, 1000.000000000000000 ) ;
#75 = CONICAL_SURFACE ( 'NONE', #131, 5.250000000000000000, 0.3141592653438838900 ) ;
#76 = FACE_OUTER_BOUND ( 'NONE', #101, .T. ) ;
#77 = CYLINDRICAL_SURFACE ( 'NONE', #134, 5.000000000000000000 ) ;
#78 = LINE ( 'NONE', #311, #68 ) ;
#79 = CONICAL_SURFACE ( 'NONE', #136, 5.250000000000000000, 0.3141592653438841100 ) ;
#80 = FACE_OUTER_BOUND ( 'NONE', #26, .T. ) ;
#81 = CONICAL_SURFACE ( 'NONE', #142, 5.250000000000000000, 0.3141592653438841100 ) ;
#82 = FACE_OUTER_BOUND ( 'NONE', #98, .T. ) ;
#83 = CYLINDRICAL_SURFACE ( 'NONE', #138, 5.000000000000000000 ) ;
#84 = FACE_OUTER_BOUND ( 'NONE', #99, .T. ) ;
#85 = LINE ( 'NONE', #307, #74 ) ;
#86 = FACE_OUTER_BOUND ( 'NONE', #96, .T. ) ;
#87 = FACE_OUTER_BOUND ( 'NONE', #29, .T. ) ;
#88 = FACE_OUTER_BOUND ( 'NONE', #18, .T. ) ;
#89 = CYLINDRICAL_SURFACE ( 'NONE', #143, 6.000000000000000000 ) ;
#90 = FACE_BOUND ( 'NONE', #93, .T. ) ;
#91 = CYLINDRICAL_SURFACE ( 'NONE', #144, 6.000000000000000000 ) ;
#92 = LINE ( 'NONE', #310, #71 ) ;
#93 = EDGE_LOOP ( 'NONE', ( #116, #15 ) ) ;
#94 = FACE_OUTER_BOUND ( 'NONE', #95, .T. ) ;
#95 = EDGE_LOOP ( 'NONE', ( #24, #102, #111, #108 ) ) ;
#96 = EDGE_LOOP ( 'NONE', ( #16, #39 ) ) ;
#97 = EDGE_LOOP ( 'NONE', ( #110, #123, #109, #122 ) ) ;
#98 = EDGE_LOOP ( 'NONE', ( #27, #121, #44, #23 ) ) ;
#99 = EDGE_LOOP ( 'NONE', ( #120, #104, #28, #30 ) ) ;
#100 = EDGE_LOOP ( 'NONE', ( #107, #46, #112, #43 ) ) ;
#101 = EDGE_LOOP ( 'NONE', ( #106, #45, #25, #41 ) ) ;
#102 = ORIENTED_EDGE ( 'NONE', *, *, #146, .T. ) ;
#103 = ORIENTED_EDGE ( 'NONE', *, *, #179, .F. ) ;
#104 = ORIENTED_EDGE ( 'NONE', *, *, #132, .T. ) ;
#105 = ORIENTED_EDGE ( 'NONE', *, *, #163, .T. ) ;
#106 = ORIENTED_EDGE ( 'NONE', *, *, #151, .T. ) ;
#107 = ORIENTED_EDGE ( 'NONE', *, *, #178, .F. ) ;
#108 = ORIENTED_EDGE ( 'NONE', *, *, #185, .F. ) ;
#109 = ORIENTED_EDGE ( 'NONE', *, *, #185, .T. ) ;
#110 = ORIENTED_EDGE ( 'NONE', *, *, #146, .F. ) ;
#111 = ORIENTED_EDGE ( 'NONE', *, *, #169, .T. ) ;
#112 = ORIENTED_EDGE ( 'NONE', *, *, #149, .T. ) ;
#113 = ORIENTED_EDGE ( 'NONE', *, *, #169, .F. ) ;
#114 = CLOSED_SHELL ( 'NONE', ( #10, #9, #5, #1, #7, #4, #3, #8, #6, #2 ) ) ;
#115 = ORIENTED_EDGE ( 'NONE', *, *, #168, .F. ) ;
#116 = ORIENTED_EDGE ( 'NONE', *, *, #151, .F. ) ;
#117 = ORIENTED_EDGE ( 'NONE', *, *, #148, .T. ) ;
#118 = VERTEX_POINT ( 'NONE', #314 ) ;
#119 = VERTEX_POINT ( 'NONE', #234 ) ;
#120 = ORIENTED_EDGE ( 'NONE', *, *, #164, .F. ) ;
#121 = ORIENTED_EDGE ( 'NONE', *, *, #176, .T. ) ;
#122 = ORIENTED_EDGE ( 'NONE', *, *, #150, .T. ) ;
#123 = ORIENTED_EDGE ( 'NONE', *, *, #179, .T. ) ;
#124 = ORIENTED_EDGE ( 'NONE', *, *, #132, .F. ) ;
#125 = ORIENTED_EDGE ( 'NONE', *, *, #175, .F. ) ;
#126 = ORIENTED_EDGE ( 'NONE', *, *, #149, .F. ) ;
#127 = SURFACE_STYLE_FILL_AREA ( #206 ) ;
#128 = COLOUR_RGB ( '',1.000000000000000000, 1.000000000000000000, 1.000000000000000000 ) ;
#129 = PRESENTATION_STYLE_ASSIGNMENT (( #204 ) ) ;
#130 = VERTEX_POINT ( 'NONE', #208 ) ;
#131 = AXIS2_PLACEMENT_3D ( 'NONE', #257, #262, #244 ) ;
#132 = EDGE_CURVE ( 'NONE', #119, #20, #78, .T. ) ;
#133 = PRODUCT_DEFINITION_FORMATION_WITH_SPECIFIED_SOURCE ( 'TUTTO', '', #186, .NOT_KNOWN. ) ;
#134 = AXIS2_PLACEMENT_3D ( 'NONE', #251, #249, #252 ) ;
#135 = AXIS2_PLACEMENT_3D ( 'NONE', #290, #289, #288 ) ;
#136 = AXIS2_PLACEMENT_3D ( 'NONE', #275, #273, #276 ) ;
#137 = AXIS2_PLACEMENT_3D ( 'NONE', #298, #297, #294 ) ;
#138 = AXIS2_PLACEMENT_3D ( 'NONE', #269, #261, #270 ) ;
#139 = AXIS2_PLACEMENT_3D ( 'NONE', #250, #256, #254 ) ;
#140 = AXIS2_PLACEMENT_3D ( 'NONE', #284, #278, #279 ) ;
#141 = AXIS2_PLACEMENT_3D ( 'NONE', #300, #209, #285 ) ;
#142 = AXIS2_PLACEMENT_3D ( 'NONE', #295, #283, #280 ) ;
#143 = AXIS2_PLACEMENT_3D ( 'NONE', #303, #260, #313 ) ;
#144 = AXIS2_PLACEMENT_3D ( 'NONE', #301, #296, #299 ) ;
#145 = EDGE_CURVE ( 'NONE', #17, #51, #85, .T. ) ;
#146 = EDGE_CURVE ( 'NONE', #20, #130, #92, .T. ) ;
#147 = AXIS2_PLACEMENT_3D ( 'NONE', #286, #282, #277 ) ;
#148 = EDGE_CURVE ( 'NONE', #35, #40, #69, .T. ) ;
#149 = EDGE_CURVE ( 'NONE', #48, #130, #70, .T. ) ;
#150 = EDGE_CURVE ( 'NONE', #31, #130, #72, .T. ) ;
#151 = EDGE_CURVE ( 'NONE', #42, #17, #64, .T. ) ;
#152 = AXIS2_PLACEMENT_3D ( 'NONE', #265, #264, #263 ) ;
#153 = AXIS2_PLACEMENT_3D ( 'NONE', #271, #268, #267 ) ;
#154 = AXIS2_PLACEMENT_3D ( 'NONE', #243, #242, #241 ) ;
#155 = AXIS2_PLACEMENT_3D ( 'NONE', #238, #237, #236 ) ;
#156 = AXIS2_PLACEMENT_3D ( 'NONE', #235, #233, #232 ) ;
#157 = AXIS2_PLACEMENT_3D ( 'NONE', #259, #258, #253 ) ;
#158 = AXIS2_PLACEMENT_3D ( 'NONE', #224, #223, #222 ) ;
#159 = AXIS2_PLACEMENT_3D ( 'NONE', #229, #228, #227 ) ;
#160 = PRESENTATION_LAYER_ASSIGNMENT (  '', '', ( #161 ) ) ;
#161 = STYLED_ITEM ( 'NONE', ( #36 ), #191 ) ;
#162 =( GEOMETRIC_REPRESENTATION_CONTEXT ( 3 ) GLOBAL_UNCERTAINTY_ASSIGNED_CONTEXT ( ( #190 ) ) GLOBAL_UNIT_ASSIGNED_CONTEXT ( ( #216, #215, #214 ) ) REPRESENTATION_CONTEXT ( 'NONE', 'WORKASPACE' ) );
#163 = EDGE_CURVE ( 'NONE', #48, #118, #67, .T. ) ;
#164 = EDGE_CURVE ( 'NONE', #119, #35, #66, .T. ) ;
#165 = PRESENTATION_LAYER_ASSIGNMENT (  '', '', ( #167 ) ) ;
#166 =( GEOMETRIC_REPRESENTATION_CONTEXT ( 3 ) GLOBAL_UNCERTAINTY_ASSIGNED_CONTEXT ( ( #193 ) ) GLOBAL_UNIT_ASSIGNED_CONTEXT ( ( #221, #213, #212 ) ) REPRESENTATION_CONTEXT ( 'NONE', 'WORKASPACE' ) );
#167 = STYLED_ITEM ( 'NONE', ( #129 ), #189 ) ;
#168 = EDGE_CURVE ( 'NONE', #51, #57, #58, .T. ) ;
#169 = EDGE_CURVE ( 'NONE', #130, #31, #60, .T. ) ;
#170 = EDGE_CURVE ( 'NONE', #42, #57, #61, .T. ) ;
#171 = PRODUCT_RELATED_PRODUCT_CATEGORY ( 'part', '', ( #186 ) ) ;
#172 = AXIS2_PLACEMENT_3D ( 'NONE', #293, #292, #291 ) ;
#173 = MECHANICAL_DESIGN_GEOMETRIC_PRESENTATION_REPRESENTATION (  '', ( #161 ), #162 ) ;
#174 = EDGE_CURVE ( 'NONE', #57, #51, #59, .T. ) ;
#175 = EDGE_CURVE ( 'NONE', #35, #119, #53, .T. ) ;
#176 = EDGE_CURVE ( 'NONE', #17, #42, #54, .T. ) ;
#177 = EDGE_CURVE ( 'NONE', #118, #48, #55, .T. ) ;
#178 = EDGE_CURVE ( 'NONE', #118, #31, #56, .T. ) ;
#179 = EDGE_CURVE ( 'NONE', #20, #40, #62, .T. ) ;
#180 = MECHANICAL_DESIGN_GEOMETRIC_PRESENTATION_REPRESENTATION (  '', ( #167 ), #181 ) ;
#181 =( GEOMETRIC_REPRESENTATION_CONTEXT ( 3 ) GLOBAL_UNCERTAINTY_ASSIGNED_CONTEXT ( ( #192 ) ) GLOBAL_UNIT_ASSIGNED_CONTEXT ( ( #203, #202, #201 ) ) REPRESENTATION_CONTEXT ( 'NONE', 'WORKASPACE' ) );
#182 = PRODUCT_DEFINITION ( 'NON CONOSCIUTO', '', #133, #187 ) ;
#183 = AXIS2_PLACEMENT_3D ( 'NONE', #200, #199, #198 ) ;
#184 = EDGE_CURVE ( 'NONE', #40, #20, #32, .T. ) ;
#185 = EDGE_CURVE ( 'NONE', #40, #31, #33, .T. ) ;
#186 = PRODUCT ( '107600002X900A', '107600002X900A', '', ( #197 ) ) ;
#187 = PRODUCT_DEFINITION_CONTEXT ( 'detailed design', #195, 'design' ) ;
#188 = PRODUCT_DEFINITION_SHAPE ( 'NONE', 'NONE',  #182 ) ;
#189 = ADVANCED_BREP_SHAPE_REPRESENTATION ( '107600002X900A', ( #191, #183 ), #166 ) ;
#190 = UNCERTAINTY_MEASURE_WITH_UNIT (LENGTH_MEASURE( 1.000000000000000100E-005 ), #216, 'distance_accuracy_value', 'NONE');
#191 = MANIFOLD_SOLID_BREP ( 'Importato1', #114 ) ;
#192 = UNCERTAINTY_MEASURE_WITH_UNIT (LENGTH_MEASURE( 1.000000000000000100E-005 ), #203, 'distance_accuracy_value', 'NONE');
#193 = UNCERTAINTY_MEASURE_WITH_UNIT (LENGTH_MEASURE( 1.000000000000000100E-005 ), #221, 'distance_accuracy_value', 'NONE');
#194 = APPLICATION_PROTOCOL_DEFINITION ( 'draft international standard', 'automotive_design', 1998, #195 ) ;
#195 = APPLICATION_CONTEXT ( 'automotive_design' ) ;
#196 = CARTESIAN_POINT ( 'NONE',  ( 0.0000000000000000000, 7.500000000000000000, 5.000000000000000000 ) ) ;
#197 = PRODUCT_CONTEXT ( 'NONE', #207, 'mechanical' ) ;
#198 = DIRECTION ( 'NONE',  ( 1.000000000000000000, 0.0000000000000000000, 0.0000000000000000000 ) ) ;
#199 = DIRECTION ( 'NONE',  ( 0.0000000000000000000, 0.0000000000000000000, 1.000000000000000000 ) ) ;
#200 = CARTESIAN_POINT ( 'NONE',  ( 0.0000000000000000000, 0.0000000000000000000, 0.0000000000000000000 ) ) ;
#201 =( NAMED_UNIT ( * ) SI_UNIT ( $, .STERADIAN. ) SOLID_ANGLE_UNIT ( ) );
#202 =( NAMED_UNIT ( * ) PLANE_ANGLE_UNIT ( ) SI_UNIT ( $, .RADIAN. ) );
#203 =( LENGTH_UNIT ( ) NAMED_UNIT ( * ) SI_UNIT ( .MILLI., .METRE. ) );
#204 = SURFACE_STYLE_USAGE ( .BOTH. , #205 ) ;
#205 = SURFACE_SIDE_STYLE ('',( #127 ) ) ;
#206 = FILL_AREA_STYLE ('',( #225 ) ) ;
#207 = APPLICATION_CONTEXT ( 'automotive_design' ) ;
#208 = CARTESIAN_POINT ( 'NONE',  ( 7.347880794884119700E-016, 2.308262652999992800, 6.000000000000000000 ) ) ;
#209 = DIRECTION ( 'NONE',  ( 0.0000000000000000000, -1.000000000000000000, 0.0000000000000000000 ) ) ;
#210 = CARTESIAN_POINT ( 'NONE',  ( 6.123233995736766300E-016, 7.500000000000000000, -5.000000000000000000 ) ) ;
#211 = APPLICATION_PROTOCOL_DEFINITION ( 'draft international standard', 'automotive_design', 1998, #207 ) ;
#212 =( NAMED_UNIT ( * ) SI_UNIT ( $, .STERADIAN. ) SOLID_ANGLE_UNIT ( ) );
#213 =( NAMED_UNIT ( * ) PLANE_ANGLE_UNIT ( ) SI_UNIT ( $, .RADIAN. ) );
#214 =( NAMED_UNIT ( * ) SI_UNIT ( $, .STERADIAN. ) SOLID_ANGLE_UNIT ( ) );
#215 =( NAMED_UNIT ( * ) PLANE_ANGLE_UNIT ( ) SI_UNIT ( $, .RADIAN. ) );
#216 =( LENGTH_UNIT ( ) NAMED_UNIT ( * ) SI_UNIT ( .MILLI., .METRE. ) );
#217 = SURFACE_STYLE_USAGE ( .BOTH. , #218 ) ;
#218 = SURFACE_SIDE_STYLE ('',( #50 ) ) ;
#219 = FILL_AREA_STYLE ('',( #226 ) ) ;
#220 = CARTESIAN_POINT ( 'NONE',  ( 0.0000000000000000000, 0.0000000000000000000, 5.250000000000000000 ) ) ;
#221 =( LENGTH_UNIT ( ) NAMED_UNIT ( * ) SI_UNIT ( .MILLI., .METRE. ) );
#222 = DIRECTION ( 'NONE',  ( 1.000000000000000000, -1.170938346284344800E-014, 0.0000000000000000000 ) ) ;
#223 = DIRECTION ( 'NONE',  ( 0.0000000000000000000, -1.000000000000000000, 0.0000000000000000000 ) ) ;
#224 = CARTESIAN_POINT ( 'NONE',  ( 0.0000000000000000000, 5.191737347000069400, 0.0000000000000000000 ) ) ;
#225 = FILL_AREA_STYLE_COLOUR ( '', #128 ) ;
#226 = FILL_AREA_STYLE_COLOUR ( '', #37 ) ;
#227 = DIRECTION ( 'NONE',  ( 1.000000000000000000, -1.170938346284344800E-014, 0.0000000000000000000 ) ) ;
#228 = DIRECTION ( 'NONE',  ( 0.0000000000000000000, -1.000000000000000000, 0.0000000000000000000 ) ) ;
#229 = CARTESIAN_POINT ( 'NONE',  ( 0.0000000000000000000, 5.191737347000069400, 0.0000000000000000000 ) ) ;
#230 = DIRECTION ( 'NONE',  ( -0.0000000000000000000, -1.000000000000000000, -7.228014483236695800E-017 ) ) ;
#231 = CARTESIAN_POINT ( 'NONE',  ( 0.0000000000000000000, 5.191737347000000100, -6.000000000000000000 ) ) ;
#232 = DIRECTION ( 'NONE',  ( 0.0000000000000000000, 0.0000000000000000000, 1.000000000000000000 ) ) ;
#233 = DIRECTION ( 'NONE',  ( 0.0000000000000000000, -1.000000000000000000, -0.0000000000000000000 ) ) ;
#234 = CARTESIAN_POINT ( 'NONE',  ( 6.888638245203850100E-016, 7.500000000000062200, 5.249999999999980500 ) ) ;
#235 = CARTESIAN_POINT ( 'NONE',  ( 0.0000000000000000000, 0.0000000000000000000, 0.0000000000000000000 ) ) ;
#236 = DIRECTION ( 'NONE',  ( 0.0000000000000000000, 0.0000000000000000000, 1.000000000000000000 ) ) ;
#237 = DIRECTION ( 'NONE',  ( -0.0000000000000000000, -1.000000000000000000, -0.0000000000000000000 ) ) ;
#238 = CARTESIAN_POINT ( 'NONE',  ( 0.0000000000000000000, 0.0000000000000000000, 0.0000000000000000000 ) ) ;
#239 = DIRECTION ( 'NONE',  ( 3.784366730258333800E-017, 0.9510565162998182400, -0.3090169943605909900 ) ) ;
#240 = CARTESIAN_POINT ( 'NONE',  ( 6.429395695523604200E-016, 0.0000000000000000000, -5.250000000000000000 ) ) ;
#241 = DIRECTION ( 'NONE',  ( 0.0000000000000000000, 0.0000000000000000000, -1.000000000000000000 ) ) ;
#242 = DIRECTION ( 'NONE',  ( 0.0000000000000000000, 1.000000000000000000, 8.260587980841938800E-017 ) ) ;
#243 = CARTESIAN_POINT ( 'NONE',  ( 0.0000000000000000000, 7.500000000000062200, 5.158740922451115000E-030 ) ) ;
#244 = DIRECTION ( 'NONE',  ( 0.0000000000000000000, 0.0000000000000000000, -1.000000000000000000 ) ) ;
#245 = DIRECTION ( 'NONE',  ( 0.0000000000000000000, 1.000000000000000000, 0.0000000000000000000 ) ) ;
#246 = CARTESIAN_POINT ( 'NONE',  ( 0.0000000000000000000, 2.308262652999992800, -6.000000000000000000 ) ) ;
#247 = CARTESIAN_POINT ( 'NONE',  ( 6.123233995736766300E-016, 0.0000000000000000000, -5.000000000000000000 ) ) ;
#248 = CARTESIAN_POINT ( 'NONE',  ( 0.0000000000000000000, 7.500000000000062200, -5.249999999999980500 ) ) ;
#249 = DIRECTION ( 'NONE',  ( 0.0000000000000000000, 1.000000000000000000, 0.0000000000000000000 ) ) ;
#250 = CARTESIAN_POINT ( 'NONE',  ( 0.0000000000000000000, 7.500000000000000000, 0.0000000000000000000 ) ) ;
#251 = CARTESIAN_POINT ( 'NONE',  ( 0.0000000000000000000, 0.0000000000000000000, 0.0000000000000000000 ) ) ;
#252 = DIRECTION ( 'NONE',  ( 0.0000000000000000000, 0.0000000000000000000, 1.000000000000000000 ) ) ;
#253 = DIRECTION ( 'NONE',  ( 0.0000000000000000000, 0.0000000000000000000, 1.000000000000000000 ) ) ;
#254 = DIRECTION ( 'NONE',  ( 0.0000000000000000000, 0.0000000000000000000, -1.000000000000000000 ) ) ;
#255 = CARTESIAN_POINT ( 'NONE',  ( 7.347880794884119700E-016, 5.191737347000069400, 6.000000000000000000 ) ) ;
#256 = DIRECTION ( 'NONE',  ( -0.0000000000000000000, -1.000000000000000000, -8.260587980841938800E-017 ) ) ;
#257 = CARTESIAN_POINT ( 'NONE',  ( 0.0000000000000000000, 7.500000000000000000, 0.0000000000000000000 ) ) ;
#258 = DIRECTION ( 'NONE',  ( 0.0000000000000000000, 1.000000000000000000, 0.0000000000000000000 ) ) ;
#259 = CARTESIAN_POINT ( 'NONE',  ( 0.0000000000000000000, 7.500000000000000000, 0.0000000000000000000 ) ) ;
#260 = DIRECTION ( 'NONE',  ( -0.0000000000000000000, -1.000000000000000000, -7.228014483236695800E-017 ) ) ;
#261 = DIRECTION ( 'NONE',  ( 0.0000000000000000000, 1.000000000000000000, 0.0000000000000000000 ) ) ;
#262 = DIRECTION ( 'NONE',  ( -0.0000000000000000000, -1.000000000000000000, -8.260587980841938800E-017 ) ) ;
#263 = DIRECTION ( 'NONE',  ( 0.0000000000000000000, 1.084202172485504400E-015, 1.000000000000000000 ) ) ;
#264 = DIRECTION ( 'NONE',  ( 0.0000000000000000000, 1.000000000000000000, 0.0000000000000000000 ) ) ;
#265 = CARTESIAN_POINT ( 'NONE',  ( 0.0000000000000000000, 2.308262652999992800, 0.0000000000000000000 ) ) ;
#266 = CARTESIAN_POINT ( 'NONE',  ( 0.0000000000000000000, 5.191737347000069400, -6.000000000000000000 ) ) ;
#267 = DIRECTION ( 'NONE',  ( 0.0000000000000000000, 0.0000000000000000000, 1.000000000000000000 ) ) ;
#268 = DIRECTION ( 'NONE',  ( 0.0000000000000000000, 1.000000000000000000, 0.0000000000000000000 ) ) ;
#269 = CARTESIAN_POINT ( 'NONE',  ( 0.0000000000000000000, 0.0000000000000000000, 0.0000000000000000000 ) ) ;
#270 = DIRECTION ( 'NONE',  ( 0.0000000000000000000, 0.0000000000000000000, 1.000000000000000000 ) ) ;
#271 = CARTESIAN_POINT ( 'NONE',  ( 0.0000000000000000000, 7.500000000000000000, 0.0000000000000000000 ) ) ;
#272 = DIRECTION ( 'NONE',  ( 0.0000000000000000000, 1.000000000000000000, 0.0000000000000000000 ) ) ;
#273 = DIRECTION ( 'NONE',  ( -0.0000000000000000000, 1.000000000000000000, 0.0000000000000000000 ) ) ;
#274 = CARTESIAN_POINT ( 'NONE',  ( 0.0000000000000000000, 0.0000000000000000000, 5.000000000000000000 ) ) ;
#275 = CARTESIAN_POINT ( 'NONE',  ( 0.0000000000000000000, 0.0000000000000000000, 0.0000000000000000000 ) ) ;
#276 = DIRECTION ( 'NONE',  ( 0.0000000000000000000, 0.0000000000000000000, 1.000000000000000000 ) ) ;
#277 = DIRECTION ( 'NONE',  ( 0.0000000000000000000, 0.0000000000000000000, -1.000000000000000000 ) ) ;
#278 = DIRECTION ( 'NONE',  ( 0.0000000000000000000, 1.000000000000000000, 0.0000000000000000000 ) ) ;
#279 = DIRECTION ( 'NONE',  ( 0.0000000000000000000, 0.0000000000000000000, 1.000000000000000000 ) ) ;
#280 = DIRECTION ( 'NONE',  ( 0.0000000000000000000, 0.0000000000000000000, 1.000000000000000000 ) ) ;
#281 = PLANE ( 'NONE',  #140 ) ;
#282 = DIRECTION ( 'NONE',  ( 0.0000000000000000000, 1.000000000000000000, 8.260587980841938800E-017 ) ) ;
#283 = DIRECTION ( 'NONE',  ( -0.0000000000000000000, 1.000000000000000000, 0.0000000000000000000 ) ) ;
#284 = CARTESIAN_POINT ( 'NONE',  ( -5.312999999999999700, 7.500000000000000000, -5.312999999999999700 ) ) ;
#285 = DIRECTION ( 'NONE',  ( 0.0000000000000000000, 0.0000000000000000000, -1.000000000000000000 ) ) ;
#286 = CARTESIAN_POINT ( 'NONE',  ( 0.0000000000000000000, 7.500000000000062200, 5.158740922451115000E-030 ) ) ;
#287 = PLANE ( 'NONE',  #141 ) ;
#288 = DIRECTION ( 'NONE',  ( 0.0000000000000000000, 0.0000000000000000000, 1.000000000000000000 ) ) ;
#289 = DIRECTION ( 'NONE',  ( 0.0000000000000000000, -1.000000000000000000, -0.0000000000000000000 ) ) ;
#290 = CARTESIAN_POINT ( 'NONE',  ( 0.0000000000000000000, 0.0000000000000000000, 0.0000000000000000000 ) ) ;
#291 = DIRECTION ( 'NONE',  ( 0.0000000000000000000, 0.0000000000000000000, 1.000000000000000000 ) ) ;
#292 = DIRECTION ( 'NONE',  ( -0.0000000000000000000, -1.000000000000000000, -0.0000000000000000000 ) ) ;
#293 = CARTESIAN_POINT ( 'NONE',  ( 0.0000000000000000000, 0.0000000000000000000, 0.0000000000000000000 ) ) ;
#294 = DIRECTION ( 'NONE',  ( 0.0000000000000000000, 1.084202172485504400E-015, 1.000000000000000000 ) ) ;
#295 = CARTESIAN_POINT ( 'NONE',  ( 0.0000000000000000000, 0.0000000000000000000, 0.0000000000000000000 ) ) ;
#296 = DIRECTION ( 'NONE',  ( -0.0000000000000000000, -1.000000000000000000, -7.228014483236695800E-017 ) ) ;
#297 = DIRECTION ( 'NONE',  ( 0.0000000000000000000, 1.000000000000000000, 0.0000000000000000000 ) ) ;
#298 = CARTESIAN_POINT ( 'NONE',  ( 0.0000000000000000000, 2.308262652999992800, 0.0000000000000000000 ) ) ;
#299 = DIRECTION ( 'NONE',  ( 0.0000000000000000000, 1.445602896647339200E-016, -1.000000000000000000 ) ) ;
#300 = CARTESIAN_POINT ( 'NONE',  ( -5.312999999999999700, 0.0000000000000000000, 5.312999999999999700 ) ) ;
#301 = CARTESIAN_POINT ( 'NONE',  ( 0.0000000000000000000, 5.191737346999999200, 0.0000000000000000000 ) ) ;
#302 = DIRECTION ( 'NONE',  ( 0.0000000000000000000, 0.9510565162998182400, 0.3090169943605909900 ) ) ;
#303 = CARTESIAN_POINT ( 'NONE',  ( 0.0000000000000000000, 5.191737346999999200, 0.0000000000000000000 ) ) ;
#304 = DIRECTION ( 'NONE',  ( 0.0000000000000000000, -0.9510565162998182400, -0.3090169943605908800 ) ) ;
#305 = DIRECTION ( 'NONE',  ( -0.0000000000000000000, -1.000000000000000000, -7.228014483236695800E-017 ) ) ;
#306 = CARTESIAN_POINT ( 'NONE',  ( 0.0000000000000000000, 0.0000000000000000000, 5.250000000000000000 ) ) ;
#307 = CARTESIAN_POINT ( 'NONE',  ( 6.123233995736766300E-016, 0.0000000000000000000, -5.000000000000000000 ) ) ;
#308 = DIRECTION ( 'NONE',  ( 3.784366730258332600E-017, -0.9510565162998183600, 0.3090169943605907700 ) ) ;
#309 = CARTESIAN_POINT ( 'NONE',  ( 0.0000000000000000000, 0.0000000000000000000, 5.000000000000000000 ) ) ;
#310 = CARTESIAN_POINT ( 'NONE',  ( 7.347880794884119700E-016, 5.191737346999998300, 6.000000000000000000 ) ) ;
#311 = CARTESIAN_POINT ( 'NONE',  ( 6.429395695523604200E-016, 7.500000000000000000, 5.250000000000000000 ) ) ;
#312 = CARTESIAN_POINT ( 'NONE',  ( 0.0000000000000000000, 7.500000000000000000, -5.250000000000000000 ) ) ;
#313 = DIRECTION ( 'NONE',  ( 0.0000000000000000000, 1.445602896647339200E-016, -1.000000000000000000 ) ) ;
#314 = CARTESIAN_POINT ( 'NONE',  ( 6.888638245203861900E-016, 0.0000000000000000000, -5.250000000000000000 ) ) ;
ENDSEC;
END-ISO-10303-21;
