ISO-10303-21;
HEADER;
FILE_DESCRIPTION (( 'STEP AP214' ),
    '1' );
FILE_NAME ('107400002X900A.STEP',
    '2013-02-25T17:21:48',
    ( '' ),
    ( '' ),
    'SwSTEP 2.0',
    'SolidWorks 2012',
    '' );
FILE_SCHEMA (( 'AUTOMOTIVE_DESIGN' ));
ENDSEC;

DATA;
#1 = ADVANCED_FACE ( 'NONE', ( #90 ), #87, .T. ) ;
#2 = ADVANCED_FACE ( 'NONE', ( #88 ), #86, .F. ) ;
#3 = ADVANCED_FACE ( 'NONE', ( #39 ), #84, .F. ) ;
#4 = ADVANCED_FACE ( 'NONE', ( #85 ), #83, .T. ) ;
#5 = ADVANCED_FACE ( 'NONE', ( #40 ), #80, .T. ) ;
#6 = ADVANCED_FACE ( 'NONE', ( #82 ), #78, .T. ) ;
#7 = ADVANCED_FACE ( 'NONE', ( #79 ), #77, .T. ) ;
#8 = ADVANCED_FACE ( 'NONE', ( #33 ), #75, .T. ) ;
#9 = ADVANCED_FACE ( 'NONE', ( #76, #81 ), #294, .T. ) ;
#10 = ADVANCED_FACE ( 'NONE', ( #103, #74 ), #216, .T. ) ;
#11 = VERTEX_POINT ( 'NONE', #215 ) ;
#12 = VERTEX_POINT ( 'NONE', #325 ) ;
#13 = VERTEX_POINT ( 'NONE', #237 ) ;
#14 = VERTEX_POINT ( 'NONE', #324 ) ;
#15 = VERTEX_POINT ( 'NONE', #225 ) ;
#16 = CLOSED_SHELL ( 'NONE', ( #2, #8, #5, #1, #3, #9, #10, #7, #6, #4 ) ) ;
#17 = ORIENTED_EDGE ( 'NONE', *, *, #163, .T. ) ;
#18 = ORIENTED_EDGE ( 'NONE', *, *, #166, .F. ) ;
#19 = ORIENTED_EDGE ( 'NONE', *, *, #162, .F. ) ;
#20 = ORIENTED_EDGE ( 'NONE', *, *, #165, .T. ) ;
#21 = ORIENTED_EDGE ( 'NONE', *, *, #157, .F. ) ;
#22 = ORIENTED_EDGE ( 'NONE', *, *, #176, .F. ) ;
#23 = ORIENTED_EDGE ( 'NONE', *, *, #173, .T. ) ;
#24 = ORIENTED_EDGE ( 'NONE', *, *, #160, .F. ) ;
#25 = ORIENTED_EDGE ( 'NONE', *, *, #161, .T. ) ;
#26 = PRESENTATION_STYLE_ASSIGNMENT (( #255 ) ) ;
#27 = COLOUR_RGB ( '',0.9882352941176471000, 0.8705882352941176600, 0.5490196078431373000 ) ;
#28 = ORIENTED_EDGE ( 'NONE', *, *, #174, .T. ) ;
#29 = ORIENTED_EDGE ( 'NONE', *, *, #162, .T. ) ;
#30 = VERTEX_POINT ( 'NONE', #218 ) ;
#31 = ORIENTED_EDGE ( 'NONE', *, *, #165, .F. ) ;
#32 = CIRCLE ( 'NONE', #144, 6.000000000000000000 ) ;
#33 = FACE_OUTER_BOUND ( 'NONE', #95, .T. ) ;
#34 = LINE ( 'NONE', #305, #73 ) ;
#35 = SURFACE_STYLE_FILL_AREA ( #250 ) ;
#36 = VERTEX_POINT ( 'NONE', #293 ) ;
#37 = EDGE_LOOP ( 'NONE', ( #106, #121 ) ) ;
#38 = EDGE_LOOP ( 'NONE', ( #120, #23, #128, #112 ) ) ;
#39 = FACE_OUTER_BOUND ( 'NONE', #38, .T. ) ;
#40 = FACE_OUTER_BOUND ( 'NONE', #97, .T. ) ;
#41 = VERTEX_POINT ( 'NONE', #219 ) ;
#42 = VERTEX_POINT ( 'NONE', #233 ) ;
#43 = COLOUR_RGB ( '',0.9882352941176471000, 0.8705882352941176600, 0.5490196078431373000 ) ;
#44 = PRESENTATION_STYLE_ASSIGNMENT (( #243 ) ) ;
#45 = VECTOR ( 'NONE', #282, 1000.000000000000000 ) ;
#46 = LINE ( 'NONE', #258, #47 ) ;
#47 = VECTOR ( 'NONE', #260, 1000.000000000000000 ) ;
#48 = VECTOR ( 'NONE', #280, 1000.000000000000100 ) ;
#49 = CIRCLE ( 'NONE', #151, 5.000000000000000000 ) ;
#50 = CIRCLE ( 'NONE', #167, 5.250000000000016000 ) ;
#51 = SURFACE_STYLE_FILL_AREA ( #241 ) ;
#52 = CIRCLE ( 'NONE', #152, 5.250000000000016000 ) ;
#53 = LINE ( 'NONE', #275, #48 ) ;
#54 = LINE ( 'NONE', #271, #56 ) ;
#55 = CIRCLE ( 'NONE', #149, 6.000000000000000000 ) ;
#56 = VECTOR ( 'NONE', #270, 1000.000000000000000 ) ;
#57 = VERTEX_POINT ( 'NONE', #303 ) ;
#58 = LINE ( 'NONE', #279, #45 ) ;
#59 = VECTOR ( 'NONE', #263, 1000.000000000000000 ) ;
#60 = CIRCLE ( 'NONE', #148, 5.000000000000000000 ) ;
#61 = LINE ( 'NONE', #262, #59 ) ;
#62 = CIRCLE ( 'NONE', #183, 6.000000000000000000 ) ;
#63 = VECTOR ( 'NONE', #288, 1000.000000000000000 ) ;
#64 = CIRCLE ( 'NONE', #185, 6.000000000000000000 ) ;
#65 = CIRCLE ( 'NONE', #150, 5.000000000000000000 ) ;
#66 = VECTOR ( 'NONE', #320, 1000.000000000000200 ) ;
#67 = LINE ( 'NONE', #302, #63 ) ;
#68 = CIRCLE ( 'NONE', #147, 5.000000000000000000 ) ;
#69 = CIRCLE ( 'NONE', #142, 6.000000000000000000 ) ;
#70 = CIRCLE ( 'NONE', #141, 5.250000000000000000 ) ;
#71 = CIRCLE ( 'NONE', #146, 5.250000000000000000 ) ;
#72 = LINE ( 'NONE', #292, #66 ) ;
#73 = VECTOR ( 'NONE', #309, 1000.000000000000200 ) ;
#74 = FACE_OUTER_BOUND ( 'NONE', #37, .T. ) ;
#75 = CONICAL_SURFACE ( 'NONE', #139, 5.250000000000000000, 0.3141592653438838900 ) ;
#76 = FACE_BOUND ( 'NONE', #114, .T. ) ;
#77 = CONICAL_SURFACE ( 'NONE', #191, 5.250000000000000000, 0.3141592653438838900 ) ;
#78 = CONICAL_SURFACE ( 'NONE', #180, 5.250000000000000000, 0.3141592653438841100 ) ;
#79 = FACE_OUTER_BOUND ( 'NONE', #93, .T. ) ;
#80 = CONICAL_SURFACE ( 'NONE', #177, 5.250000000000000000, 0.3141592653438841100 ) ;
#81 = FACE_OUTER_BOUND ( 'NONE', #92, .T. ) ;
#82 = FACE_OUTER_BOUND ( 'NONE', #94, .T. ) ;
#83 = CYLINDRICAL_SURFACE ( 'NONE', #184, 6.000000000000000000 ) ;
#84 = CYLINDRICAL_SURFACE ( 'NONE', #181, 5.000000000000000000 ) ;
#85 = FACE_OUTER_BOUND ( 'NONE', #99, .T. ) ;
#86 = CYLINDRICAL_SURFACE ( 'NONE', #193, 5.000000000000000000 ) ;
#87 = CYLINDRICAL_SURFACE ( 'NONE', #179, 6.000000000000000000 ) ;
#88 = FACE_OUTER_BOUND ( 'NONE', #96, .T. ) ;
#89 = CIRCLE ( 'NONE', #145, 6.000000000000000000 ) ;
#90 = FACE_OUTER_BOUND ( 'NONE', #98, .T. ) ;
#91 = EDGE_LOOP ( 'NONE', ( #18, #135 ) ) ;
#92 = EDGE_LOOP ( 'NONE', ( #119, #28 ) ) ;
#93 = EDGE_LOOP ( 'NONE', ( #134, #22, #113, #132 ) ) ;
#94 = EDGE_LOOP ( 'NONE', ( #131, #21, #137, #19, #138 ) ) ;
#95 = EDGE_LOOP ( 'NONE', ( #122, #117, #136, #109 ) ) ;
#96 = EDGE_LOOP ( 'NONE', ( #107, #104, #20, #123 ) ) ;
#97 = EDGE_LOOP ( 'NONE', ( #124, #126, #127, #129, #115 ) ) ;
#98 = EDGE_LOOP ( 'NONE', ( #133, #25, #29, #118, #108 ) ) ;
#99 = EDGE_LOOP ( 'NONE', ( #110, #125, #130, #116, #17 ) ) ;
#100 = VERTEX_POINT ( 'NONE', #235 ) ;
#101 = VERTEX_POINT ( 'NONE', #230 ) ;
#102 = VERTEX_POINT ( 'NONE', #226 ) ;
#103 = FACE_BOUND ( 'NONE', #91, .T. ) ;
#104 = ORIENTED_EDGE ( 'NONE', *, *, #178, .T. ) ;
#105 = VERTEX_POINT ( 'NONE', #232 ) ;
#106 = ORIENTED_EDGE ( 'NONE', *, *, #157, .T. ) ;
#107 = ORIENTED_EDGE ( 'NONE', *, *, #166, .T. ) ;
#108 = ORIENTED_EDGE ( 'NONE', *, *, #164, .F. ) ;
#109 = ORIENTED_EDGE ( 'NONE', *, *, #168, .F. ) ;
#110 = ORIENTED_EDGE ( 'NONE', *, *, #161, .F. ) ;
#111 = SHAPE_DEFINITION_REPRESENTATION ( #328, #332 ) ;
#112 = ORIENTED_EDGE ( 'NONE', *, *, #160, .T. ) ;
#113 = ORIENTED_EDGE ( 'NONE', *, *, #168, .T. ) ;
#114 = EDGE_LOOP ( 'NONE', ( #24, #31 ) ) ;
#115 = ORIENTED_EDGE ( 'NONE', *, *, #153, .F. ) ;
#116 = ORIENTED_EDGE ( 'NONE', *, *, #155, .T. ) ;
#117 = ORIENTED_EDGE ( 'NONE', *, *, #171, .T. ) ;
#118 = ORIENTED_EDGE ( 'NONE', *, *, #158, .T. ) ;
#119 = ORIENTED_EDGE ( 'NONE', *, *, #176, .T. ) ;
#120 = ORIENTED_EDGE ( 'NONE', *, *, #178, .F. ) ;
#121 = ORIENTED_EDGE ( 'NONE', *, *, #154, .T. ) ;
#122 = ORIENTED_EDGE ( 'NONE', *, *, #174, .F. ) ;
#123 = ORIENTED_EDGE ( 'NONE', *, *, #175, .F. ) ;
#124 = ORIENTED_EDGE ( 'NONE', *, *, #154, .F. ) ;
#125 = ORIENTED_EDGE ( 'NONE', *, *, #156, .T. ) ;
#126 = ORIENTED_EDGE ( 'NONE', *, *, #159, .T. ) ;
#127 = ORIENTED_EDGE ( 'NONE', *, *, #155, .F. ) ;
#128 = ORIENTED_EDGE ( 'NONE', *, *, #175, .T. ) ;
#129 = ORIENTED_EDGE ( 'NONE', *, *, #158, .F. ) ;
#130 = ORIENTED_EDGE ( 'NONE', *, *, #164, .T. ) ;
#131 = ORIENTED_EDGE ( 'NONE', *, *, #159, .F. ) ;
#132 = ORIENTED_EDGE ( 'NONE', *, *, #156, .F. ) ;
#133 = ORIENTED_EDGE ( 'NONE', *, *, #172, .T. ) ;
#134 = ORIENTED_EDGE ( 'NONE', *, *, #171, .F. ) ;
#135 = ORIENTED_EDGE ( 'NONE', *, *, #173, .F. ) ;
#136 = ORIENTED_EDGE ( 'NONE', *, *, #172, .F. ) ;
#137 = ORIENTED_EDGE ( 'NONE', *, *, #153, .T. ) ;
#138 = ORIENTED_EDGE ( 'NONE', *, *, #163, .F. ) ;
#139 = AXIS2_PLACEMENT_3D ( 'NONE', #307, #299, #322 ) ;
#140 =( GEOMETRIC_REPRESENTATION_CONTEXT ( 3 ) GLOBAL_UNCERTAINTY_ASSIGNED_CONTEXT ( ( #330 ) ) GLOBAL_UNIT_ASSIGNED_CONTEXT ( ( #240, #247, #248 ) ) REPRESENTATION_CONTEXT ( 'NONE', 'WORKASPACE' ) );
#141 = AXIS2_PLACEMENT_3D ( 'NONE', #310, #311, #312 ) ;
#142 = AXIS2_PLACEMENT_3D ( 'NONE', #313, #314, #315 ) ;
#143 = AXIS2_PLACEMENT_3D ( 'NONE', #214, #326, #323 ) ;
#144 = AXIS2_PLACEMENT_3D ( 'NONE', #316, #317, #318 ) ;
#145 = AXIS2_PLACEMENT_3D ( 'NONE', #290, #252, #291 ) ;
#146 = AXIS2_PLACEMENT_3D ( 'NONE', #319, #234, #222 ) ;
#147 = AXIS2_PLACEMENT_3D ( 'NONE', #287, #285, #254 ) ;
#148 = AXIS2_PLACEMENT_3D ( 'NONE', #272, #273, #274 ) ;
#149 = AXIS2_PLACEMENT_3D ( 'NONE', #261, #286, #281 ) ;
#150 = AXIS2_PLACEMENT_3D ( 'NONE', #276, #277, #278 ) ;
#151 = AXIS2_PLACEMENT_3D ( 'NONE', #283, #256, #284 ) ;
#152 = AXIS2_PLACEMENT_3D ( 'NONE', #257, #239, #289 ) ;
#153 = EDGE_CURVE ( 'NONE', #36, #57, #34, .T. ) ;
#154 = EDGE_CURVE ( 'NONE', #41, #36, #70, .T. ) ;
#155 = EDGE_CURVE ( 'NONE', #42, #13, #69, .T. ) ;
#156 = EDGE_CURVE ( 'NONE', #12, #30, #32, .T. ) ;
#157 = EDGE_CURVE ( 'NONE', #36, #41, #71, .T. ) ;
#158 = EDGE_CURVE ( 'NONE', #57, #42, #89, .T. ) ;
#159 = EDGE_CURVE ( 'NONE', #41, #13, #72, .T. ) ;
#160 = EDGE_CURVE ( 'NONE', #11, #15, #68, .T. ) ;
#161 = EDGE_CURVE ( 'NONE', #12, #100, #67, .T. ) ;
#162 = EDGE_CURVE ( 'NONE', #100, #57, #64, .T. ) ;
#163 = EDGE_CURVE ( 'NONE', #13, #100, #62, .T. ) ;
#164 = EDGE_CURVE ( 'NONE', #30, #42, #61, .T. ) ;
#165 = EDGE_CURVE ( 'NONE', #15, #11, #60, .T. ) ;
#166 = EDGE_CURVE ( 'NONE', #14, #102, #65, .T. ) ;
#167 = AXIS2_PLACEMENT_3D ( 'NONE', #259, #308, #301 ) ;
#168 = EDGE_CURVE ( 'NONE', #105, #30, #54, .T. ) ;
#169 = PRESENTATION_LAYER_ASSIGNMENT (  '', '', ( #170 ) ) ;
#170 = STYLED_ITEM ( 'NONE', ( #44 ), #333 ) ;
#171 = EDGE_CURVE ( 'NONE', #101, #12, #53, .T. ) ;
#172 = EDGE_CURVE ( 'NONE', #30, #12, #55, .T. ) ;
#173 = EDGE_CURVE ( 'NONE', #102, #14, #49, .T. ) ;
#174 = EDGE_CURVE ( 'NONE', #101, #105, #50, .T. ) ;
#175 = EDGE_CURVE ( 'NONE', #14, #11, #58, .T. ) ;
#176 = EDGE_CURVE ( 'NONE', #105, #101, #52, .T. ) ;
#177 = AXIS2_PLACEMENT_3D ( 'NONE', #207, #211, #206 ) ;
#178 = EDGE_CURVE ( 'NONE', #102, #15, #46, .T. ) ;
#179 = AXIS2_PLACEMENT_3D ( 'NONE', #200, #203, #201 ) ;
#180 = AXIS2_PLACEMENT_3D ( 'NONE', #212, #227, #209 ) ;
#181 = AXIS2_PLACEMENT_3D ( 'NONE', #202, #204, #327 ) ;
#182 = AXIS2_PLACEMENT_3D ( 'NONE', #321, #300, #220 ) ;
#183 = AXIS2_PLACEMENT_3D ( 'NONE', #268, #267, #269 ) ;
#184 = AXIS2_PLACEMENT_3D ( 'NONE', #210, #208, #205 ) ;
#185 = AXIS2_PLACEMENT_3D ( 'NONE', #264, #265, #266 ) ;
#186 =( GEOMETRIC_REPRESENTATION_CONTEXT ( 3 ) GLOBAL_UNCERTAINTY_ASSIGNED_CONTEXT ( ( #334 ) ) GLOBAL_UNIT_ASSIGNED_CONTEXT ( ( #244, #245, #246 ) ) REPRESENTATION_CONTEXT ( 'NONE', 'WORKASPACE' ) );
#187 = PRODUCT_RELATED_PRODUCT_CATEGORY ( 'part', '', ( #198 ) ) ;
#188 = PRODUCT_DEFINITION_FORMATION_WITH_SPECIFIED_SOURCE ( 'TUTTO', '', #198, .NOT_KNOWN. ) ;
#189 = PRODUCT_DEFINITION ( 'NON CONOSCIUTO', '', #188, #329 ) ;
#190 = AXIS2_PLACEMENT_3D ( 'NONE', #231, #296, #297 ) ;
#191 = AXIS2_PLACEMENT_3D ( 'NONE', #223, #213, #217 ) ;
#192 =( GEOMETRIC_REPRESENTATION_CONTEXT ( 3 ) GLOBAL_UNCERTAINTY_ASSIGNED_CONTEXT ( ( #331 ) ) GLOBAL_UNIT_ASSIGNED_CONTEXT ( ( #298, #229, #228 ) ) REPRESENTATION_CONTEXT ( 'NONE', 'WORKASPACE' ) );
#193 = AXIS2_PLACEMENT_3D ( 'NONE', #199, #221, #224 ) ;
#194 = MECHANICAL_DESIGN_GEOMETRIC_PRESENTATION_REPRESENTATION (  '', ( #196 ), #192 ) ;
#195 = PRESENTATION_LAYER_ASSIGNMENT (  '', '', ( #196 ) ) ;
#196 = STYLED_ITEM ( 'NONE', ( #26 ), #332 ) ;
#197 = MECHANICAL_DESIGN_GEOMETRIC_PRESENTATION_REPRESENTATION (  '', ( #170 ), #186 ) ;
#198 = PRODUCT ( '107400002X900A', '107400002X900A', '', ( #295 ) ) ;
#199 = CARTESIAN_POINT ( 'NONE',  ( 0.0000000000000000000, 0.0000000000000000000, 0.0000000000000000000 ) ) ;
#200 = CARTESIAN_POINT ( 'NONE',  ( 0.0000000000000000000, 5.191737346999999200, 0.0000000000000000000 ) ) ;
#201 = DIRECTION ( 'NONE',  ( 1.000000000000000000, -1.445602896647339200E-016, 0.0000000000000000000 ) ) ;
#202 = CARTESIAN_POINT ( 'NONE',  ( 0.0000000000000000000, 0.0000000000000000000, 0.0000000000000000000 ) ) ;
#203 = DIRECTION ( 'NONE',  ( -7.228014483236695800E-017, -1.000000000000000000, 0.0000000000000000000 ) ) ;
#204 = DIRECTION ( 'NONE',  ( 0.0000000000000000000, 1.000000000000000000, 0.0000000000000000000 ) ) ;
#205 = DIRECTION ( 'NONE',  ( 1.000000000000000000, -1.445602896647339200E-016, 0.0000000000000000000 ) ) ;
#206 = DIRECTION ( 'NONE',  ( 0.0000000000000000000, 0.0000000000000000000, 1.000000000000000000 ) ) ;
#207 = CARTESIAN_POINT ( 'NONE',  ( 0.0000000000000000000, 0.0000000000000000000, 0.0000000000000000000 ) ) ;
#208 = DIRECTION ( 'NONE',  ( -7.228014483236695800E-017, -1.000000000000000000, 0.0000000000000000000 ) ) ;
#209 = DIRECTION ( 'NONE',  ( 0.0000000000000000000, 0.0000000000000000000, 1.000000000000000000 ) ) ;
#210 = CARTESIAN_POINT ( 'NONE',  ( 0.0000000000000000000, 5.191737346999999200, 0.0000000000000000000 ) ) ;
#211 = DIRECTION ( 'NONE',  ( -0.0000000000000000000, 1.000000000000000000, 0.0000000000000000000 ) ) ;
#212 = CARTESIAN_POINT ( 'NONE',  ( 0.0000000000000000000, 0.0000000000000000000, 0.0000000000000000000 ) ) ;
#213 = DIRECTION ( 'NONE',  ( -8.260587980841938800E-017, -1.000000000000000000, 0.0000000000000000000 ) ) ;
#214 = CARTESIAN_POINT ( 'NONE',  ( -5.312999999999999700, 0.0000000000000000000, 5.312999999999999700 ) ) ;
#215 = CARTESIAN_POINT ( 'NONE',  ( 0.0000000000000000000, 7.500000000000000000, 5.000000000000000000 ) ) ;
#216 = PLANE ( 'NONE',  #143 ) ;
#217 = DIRECTION ( 'NONE',  ( 1.000000000000000000, 0.0000000000000000000, 0.0000000000000000000 ) ) ;
#218 = CARTESIAN_POINT ( 'NONE',  ( 6.000000000000000000, 5.191737347000069400, 0.0000000000000000000 ) ) ;
#219 = CARTESIAN_POINT ( 'NONE',  ( 6.888638245203861900E-016, 0.0000000000000000000, -5.250000000000000000 ) ) ;
#220 = DIRECTION ( 'NONE',  ( 0.0000000000000000000, 0.0000000000000000000, 1.000000000000000000 ) ) ;
#221 = DIRECTION ( 'NONE',  ( 0.0000000000000000000, 1.000000000000000000, 0.0000000000000000000 ) ) ;
#222 = DIRECTION ( 'NONE',  ( 0.0000000000000000000, 0.0000000000000000000, 1.000000000000000000 ) ) ;
#223 = CARTESIAN_POINT ( 'NONE',  ( 0.0000000000000000000, 7.500000000000000000, 0.0000000000000000000 ) ) ;
#224 = DIRECTION ( 'NONE',  ( 0.0000000000000000000, 0.0000000000000000000, 1.000000000000000000 ) ) ;
#225 = CARTESIAN_POINT ( 'NONE',  ( 6.123233995736766300E-016, 7.500000000000000000, -5.000000000000000000 ) ) ;
#226 = CARTESIAN_POINT ( 'NONE',  ( 6.123233995736766300E-016, 0.0000000000000000000, -5.000000000000000000 ) ) ;
#227 = DIRECTION ( 'NONE',  ( -0.0000000000000000000, 1.000000000000000000, 0.0000000000000000000 ) ) ;
#228 =( NAMED_UNIT ( * ) SI_UNIT ( $, .STERADIAN. ) SOLID_ANGLE_UNIT ( ) );
#229 =( NAMED_UNIT ( * ) PLANE_ANGLE_UNIT ( ) SI_UNIT ( $, .RADIAN. ) );
#230 = CARTESIAN_POINT ( 'NONE',  ( -5.250000000000016000, 7.499999999999952000, 6.888638245203871800E-016 ) ) ;
#231 = CARTESIAN_POINT ( 'NONE',  ( 0.0000000000000000000, 0.0000000000000000000, 0.0000000000000000000 ) ) ;
#232 = CARTESIAN_POINT ( 'NONE',  ( 5.250000000000016000, 7.499999999999950300, 0.0000000000000000000 ) ) ;
#233 = CARTESIAN_POINT ( 'NONE',  ( 6.000000000000000000, 2.308262652999992800, 0.0000000000000000000 ) ) ;
#234 = DIRECTION ( 'NONE',  ( 0.0000000000000000000, -1.000000000000000000, -0.0000000000000000000 ) ) ;
#235 = CARTESIAN_POINT ( 'NONE',  ( -6.000000000000000000, 2.308262652999992800, 7.347880794884119700E-016 ) ) ;
#236 = APPLICATION_CONTEXT ( 'automotive_design' ) ;
#237 = CARTESIAN_POINT ( 'NONE',  ( 7.347880794884116800E-016, 2.308262652999992800, -5.999999999999998200 ) ) ;
#238 = APPLICATION_PROTOCOL_DEFINITION ( 'draft international standard', 'automotive_design', 1998, #236 ) ;
#239 = DIRECTION ( 'NONE',  ( 8.260587980841938800E-017, 1.000000000000000000, -0.0000000000000000000 ) ) ;
#240 =( LENGTH_UNIT ( ) NAMED_UNIT ( * ) SI_UNIT ( .MILLI., .METRE. ) );
#241 = FILL_AREA_STYLE ('',( #304 ) ) ;
#242 = SURFACE_SIDE_STYLE ('',( #51 ) ) ;
#243 = SURFACE_STYLE_USAGE ( .BOTH. , #242 ) ;
#244 =( LENGTH_UNIT ( ) NAMED_UNIT ( * ) SI_UNIT ( .MILLI., .METRE. ) );
#245 =( NAMED_UNIT ( * ) PLANE_ANGLE_UNIT ( ) SI_UNIT ( $, .RADIAN. ) );
#246 =( NAMED_UNIT ( * ) SI_UNIT ( $, .STERADIAN. ) SOLID_ANGLE_UNIT ( ) );
#247 =( NAMED_UNIT ( * ) PLANE_ANGLE_UNIT ( ) SI_UNIT ( $, .RADIAN. ) );
#248 =( NAMED_UNIT ( * ) SI_UNIT ( $, .STERADIAN. ) SOLID_ANGLE_UNIT ( ) );
#249 = APPLICATION_PROTOCOL_DEFINITION ( 'draft international standard', 'automotive_design', 1998, #251 ) ;
#250 = FILL_AREA_STYLE ('',( #253 ) ) ;
#251 = APPLICATION_CONTEXT ( 'automotive_design' ) ;
#252 = DIRECTION ( 'NONE',  ( 0.0000000000000000000, 1.000000000000000000, 0.0000000000000000000 ) ) ;
#253 = FILL_AREA_STYLE_COLOUR ( '', #27 ) ;
#254 = DIRECTION ( 'NONE',  ( 0.0000000000000000000, 0.0000000000000000000, 1.000000000000000000 ) ) ;
#255 = SURFACE_STYLE_USAGE ( .BOTH. , #306 ) ;
#256 = DIRECTION ( 'NONE',  ( -0.0000000000000000000, -1.000000000000000000, -0.0000000000000000000 ) ) ;
#257 = CARTESIAN_POINT ( 'NONE',  ( -4.012354050813175200E-030, 7.499999999999951200, 0.0000000000000000000 ) ) ;
#258 = CARTESIAN_POINT ( 'NONE',  ( 6.123233995736766300E-016, 0.0000000000000000000, -5.000000000000000000 ) ) ;
#259 = CARTESIAN_POINT ( 'NONE',  ( -4.012354050813175200E-030, 7.499999999999951200, 0.0000000000000000000 ) ) ;
#260 = DIRECTION ( 'NONE',  ( 0.0000000000000000000, 1.000000000000000000, 0.0000000000000000000 ) ) ;
#261 = CARTESIAN_POINT ( 'NONE',  ( 0.0000000000000000000, 5.191737347000069400, 0.0000000000000000000 ) ) ;
#262 = CARTESIAN_POINT ( 'NONE',  ( 6.000000000000000000, 5.191737346999998300, 0.0000000000000000000 ) ) ;
#263 = DIRECTION ( 'NONE',  ( -7.228014483236695800E-017, -1.000000000000000000, 0.0000000000000000000 ) ) ;
#264 = CARTESIAN_POINT ( 'NONE',  ( 0.0000000000000000000, 2.308262652999992800, 0.0000000000000000000 ) ) ;
#265 = DIRECTION ( 'NONE',  ( 0.0000000000000000000, 1.000000000000000000, 0.0000000000000000000 ) ) ;
#266 = DIRECTION ( 'NONE',  ( 0.0000000000000000000, 1.084202172485504400E-015, 1.000000000000000000 ) ) ;
#267 = DIRECTION ( 'NONE',  ( 0.0000000000000000000, 1.000000000000000000, 0.0000000000000000000 ) ) ;
#268 = CARTESIAN_POINT ( 'NONE',  ( 0.0000000000000000000, 2.308262652999992800, 0.0000000000000000000 ) ) ;
#269 = DIRECTION ( 'NONE',  ( 0.0000000000000000000, 1.084202172485504400E-015, 1.000000000000000000 ) ) ;
#270 = DIRECTION ( 'NONE',  ( 0.3090169943605907700, -0.9510565162998183600, 0.0000000000000000000 ) ) ;
#271 = CARTESIAN_POINT ( 'NONE',  ( 5.250000000000000000, 7.500000000000000000, 0.0000000000000000000 ) ) ;
#272 = CARTESIAN_POINT ( 'NONE',  ( 0.0000000000000000000, 7.500000000000000000, 0.0000000000000000000 ) ) ;
#273 = DIRECTION ( 'NONE',  ( 0.0000000000000000000, 1.000000000000000000, 0.0000000000000000000 ) ) ;
#274 = DIRECTION ( 'NONE',  ( 0.0000000000000000000, 0.0000000000000000000, 1.000000000000000000 ) ) ;
#275 = CARTESIAN_POINT ( 'NONE',  ( -5.250000000000000000, 7.500000000000000000, 6.429395695523604200E-016 ) ) ;
#276 = CARTESIAN_POINT ( 'NONE',  ( 0.0000000000000000000, 0.0000000000000000000, 0.0000000000000000000 ) ) ;
#277 = DIRECTION ( 'NONE',  ( -0.0000000000000000000, -1.000000000000000000, -0.0000000000000000000 ) ) ;
#278 = DIRECTION ( 'NONE',  ( 0.0000000000000000000, 0.0000000000000000000, 1.000000000000000000 ) ) ;
#279 = CARTESIAN_POINT ( 'NONE',  ( 0.0000000000000000000, 0.0000000000000000000, 5.000000000000000000 ) ) ;
#280 = DIRECTION ( 'NONE',  ( -0.3090169943605908800, -0.9510565162998182400, 3.784366730258332000E-017 ) ) ;
#281 = DIRECTION ( 'NONE',  ( 0.0000000000000000000, -1.170938346284344800E-014, -1.000000000000000000 ) ) ;
#282 = DIRECTION ( 'NONE',  ( 0.0000000000000000000, 1.000000000000000000, 0.0000000000000000000 ) ) ;
#283 = CARTESIAN_POINT ( 'NONE',  ( 0.0000000000000000000, 0.0000000000000000000, 0.0000000000000000000 ) ) ;
#284 = DIRECTION ( 'NONE',  ( 0.0000000000000000000, 0.0000000000000000000, 1.000000000000000000 ) ) ;
#285 = DIRECTION ( 'NONE',  ( 0.0000000000000000000, 1.000000000000000000, 0.0000000000000000000 ) ) ;
#286 = DIRECTION ( 'NONE',  ( 0.0000000000000000000, -1.000000000000000000, 0.0000000000000000000 ) ) ;
#287 = CARTESIAN_POINT ( 'NONE',  ( 0.0000000000000000000, 7.500000000000000000, 0.0000000000000000000 ) ) ;
#288 = DIRECTION ( 'NONE',  ( -7.228014483236695800E-017, -1.000000000000000000, 0.0000000000000000000 ) ) ;
#289 = DIRECTION ( 'NONE',  ( 1.000000000000000000, -1.652117596168382600E-016, 0.0000000000000000000 ) ) ;
#290 = CARTESIAN_POINT ( 'NONE',  ( 0.0000000000000000000, 2.308262652999992800, 0.0000000000000000000 ) ) ;
#291 = DIRECTION ( 'NONE',  ( 0.0000000000000000000, 1.084202172485504400E-015, 1.000000000000000000 ) ) ;
#292 = CARTESIAN_POINT ( 'NONE',  ( 6.429395695523604200E-016, 0.0000000000000000000, -5.250000000000000000 ) ) ;
#293 = CARTESIAN_POINT ( 'NONE',  ( 0.0000000000000000000, 0.0000000000000000000, 5.250000000000000000 ) ) ;
#294 = PLANE ( 'NONE',  #182 ) ;
#295 = PRODUCT_CONTEXT ( 'NONE', #251, 'mechanical' ) ;
#296 = DIRECTION ( 'NONE',  ( 0.0000000000000000000, 0.0000000000000000000, 1.000000000000000000 ) ) ;
#297 = DIRECTION ( 'NONE',  ( 1.000000000000000000, 0.0000000000000000000, 0.0000000000000000000 ) ) ;
#298 =( LENGTH_UNIT ( ) NAMED_UNIT ( * ) SI_UNIT ( .MILLI., .METRE. ) );
#299 = DIRECTION ( 'NONE',  ( -8.260587980841938800E-017, -1.000000000000000000, 0.0000000000000000000 ) ) ;
#300 = DIRECTION ( 'NONE',  ( 0.0000000000000000000, 1.000000000000000000, 0.0000000000000000000 ) ) ;
#301 = DIRECTION ( 'NONE',  ( 1.000000000000000000, -1.652117596168382600E-016, 0.0000000000000000000 ) ) ;
#302 = CARTESIAN_POINT ( 'NONE',  ( -6.000000000000000000, 5.191737347000000100, 7.347880794884119700E-016 ) ) ;
#303 = CARTESIAN_POINT ( 'NONE',  ( 0.0000000000000000000, 2.308262652999992800, 5.999999999999998200 ) ) ;
#304 = FILL_AREA_STYLE_COLOUR ( '', #43 ) ;
#305 = CARTESIAN_POINT ( 'NONE',  ( 0.0000000000000000000, 0.0000000000000000000, 5.250000000000000000 ) ) ;
#306 = SURFACE_SIDE_STYLE ('',( #35 ) ) ;
#307 = CARTESIAN_POINT ( 'NONE',  ( 0.0000000000000000000, 7.500000000000000000, 0.0000000000000000000 ) ) ;
#308 = DIRECTION ( 'NONE',  ( 8.260587980841938800E-017, 1.000000000000000000, -0.0000000000000000000 ) ) ;
#309 = DIRECTION ( 'NONE',  ( 0.0000000000000000000, 0.9510565162998182400, 0.3090169943605909900 ) ) ;
#310 = CARTESIAN_POINT ( 'NONE',  ( 0.0000000000000000000, 0.0000000000000000000, 0.0000000000000000000 ) ) ;
#311 = DIRECTION ( 'NONE',  ( 0.0000000000000000000, -1.000000000000000000, -0.0000000000000000000 ) ) ;
#312 = DIRECTION ( 'NONE',  ( 0.0000000000000000000, 0.0000000000000000000, 1.000000000000000000 ) ) ;
#313 = CARTESIAN_POINT ( 'NONE',  ( 0.0000000000000000000, 2.308262652999992800, 0.0000000000000000000 ) ) ;
#314 = DIRECTION ( 'NONE',  ( 0.0000000000000000000, 1.000000000000000000, 0.0000000000000000000 ) ) ;
#315 = DIRECTION ( 'NONE',  ( 0.0000000000000000000, 1.084202172485504400E-015, 1.000000000000000000 ) ) ;
#316 = CARTESIAN_POINT ( 'NONE',  ( 0.0000000000000000000, 5.191737347000069400, 0.0000000000000000000 ) ) ;
#317 = DIRECTION ( 'NONE',  ( 0.0000000000000000000, -1.000000000000000000, 0.0000000000000000000 ) ) ;
#318 = DIRECTION ( 'NONE',  ( 0.0000000000000000000, -1.170938346284344800E-014, -1.000000000000000000 ) ) ;
#319 = CARTESIAN_POINT ( 'NONE',  ( 0.0000000000000000000, 0.0000000000000000000, 0.0000000000000000000 ) ) ;
#320 = DIRECTION ( 'NONE',  ( 3.784366730258333800E-017, 0.9510565162998182400, -0.3090169943605909900 ) ) ;
#321 = CARTESIAN_POINT ( 'NONE',  ( -5.312999999999999700, 7.500000000000000000, -5.312999999999999700 ) ) ;
#322 = DIRECTION ( 'NONE',  ( 1.000000000000000000, 0.0000000000000000000, 0.0000000000000000000 ) ) ;
#323 = DIRECTION ( 'NONE',  ( 0.0000000000000000000, 0.0000000000000000000, -1.000000000000000000 ) ) ;
#324 = CARTESIAN_POINT ( 'NONE',  ( 0.0000000000000000000, 0.0000000000000000000, 5.000000000000000000 ) ) ;
#325 = CARTESIAN_POINT ( 'NONE',  ( -6.000000000000000000, 5.191737347000069400, 7.347880794884119700E-016 ) ) ;
#326 = DIRECTION ( 'NONE',  ( 0.0000000000000000000, -1.000000000000000000, 0.0000000000000000000 ) ) ;
#327 = DIRECTION ( 'NONE',  ( 0.0000000000000000000, 0.0000000000000000000, 1.000000000000000000 ) ) ;
#328 = PRODUCT_DEFINITION_SHAPE ( 'NONE', 'NONE',  #189 ) ;
#329 = PRODUCT_DEFINITION_CONTEXT ( 'detailed design', #236, 'design' ) ;
#330 = UNCERTAINTY_MEASURE_WITH_UNIT (LENGTH_MEASURE( 1.000000000000000100E-005 ), #240, 'distance_accuracy_value', 'NONE');
#331 = UNCERTAINTY_MEASURE_WITH_UNIT (LENGTH_MEASURE( 1.000000000000000100E-005 ), #298, 'distance_accuracy_value', 'NONE');
#332 = ADVANCED_BREP_SHAPE_REPRESENTATION ( '107400002X900A', ( #333, #190 ), #140 ) ;
#333 = MANIFOLD_SOLID_BREP ( 'Importato1', #16 ) ;
#334 = UNCERTAINTY_MEASURE_WITH_UNIT (LENGTH_MEASURE( 1.000000000000000100E-005 ), #244, 'distance_accuracy_value', 'NONE');
ENDSEC;
END-ISO-10303-21;
