ISO-10303-21;
HEADER;
FILE_DESCRIPTION (( 'STEP AP214' ),
    '1' );
FILE_NAME ('107400002Y100A.STEP',
    '2013-02-25T17:21:38',
    ( '' ),
    ( '' ),
    'SwSTEP 2.0',
    'SolidWorks 2012',
    '' );
FILE_SCHEMA (( 'AUTOMOTIVE_DESIGN' ));
ENDSEC;

DATA;
#1 = ADVANCED_FACE ( 'NONE', ( #80 ), #29, .T. ) ;
#2 = ADVANCED_FACE ( 'NONE', ( #51 ), #20, .T. ) ;
#3 = ADVANCED_FACE ( 'NONE', ( #27, #23 ), #277, .T. ) ;
#4 = ADVANCED_FACE ( 'NONE', ( #60, #25 ), #264, .T. ) ;
#5 = ADVANCED_FACE ( 'NONE', ( #61 ), #33, .T. ) ;
#6 = ADVANCED_FACE ( 'NONE', ( #19 ), #118, .T. ) ;
#7 = ADVANCED_FACE ( 'NONE', ( #31 ), #65, .F. ) ;
#8 = ADVANCED_FACE ( 'NONE', ( #124 ), #17, .T. ) ;
#9 = ADVANCED_FACE ( 'NONE', ( #30 ), #81, .F. ) ;
#10 = ADVANCED_FACE ( 'NONE', ( #44 ), #103, .T. ) ;
#11 = ORIENTED_EDGE ( 'NONE', *, *, #153, .T. ) ;
#12 = ORIENTED_EDGE ( 'NONE', *, *, #148, .F. ) ;
#13 = VERTEX_POINT ( 'NONE', #191 ) ;
#14 = VECTOR ( 'NONE', #232, 1000.000000000000200 ) ;
#15 = COLOUR_RGB ( '',0.9882352941176471000, 0.8705882352941176600, 0.5490196078431373000 ) ;
#16 = CIRCLE ( 'NONE', #167, 6.000000000000000000 ) ;
#17 = CYLINDRICAL_SURFACE ( 'NONE', #137, 7.000000000000000000 ) ;
#18 = ORIENTED_EDGE ( 'NONE', *, *, #138, .T. ) ;
#19 = FACE_OUTER_BOUND ( 'NONE', #115, .T. ) ;
#20 = CONICAL_SURFACE ( 'NONE', #143, 6.299999999999999800, 0.3141592653620729500 ) ;
#21 = ORIENTED_EDGE ( 'NONE', *, *, #166, .T. ) ;
#22 = ORIENTED_EDGE ( 'NONE', *, *, #153, .F. ) ;
#23 = FACE_OUTER_BOUND ( 'NONE', #130, .T. ) ;
#24 = VECTOR ( 'NONE', #246, 1000.000000000000000 ) ;
#25 = FACE_OUTER_BOUND ( 'NONE', #75, .T. ) ;
#26 = CIRCLE ( 'NONE', #175, 7.000000000000000000 ) ;
#27 = FACE_BOUND ( 'NONE', #102, .T. ) ;
#28 = ORIENTED_EDGE ( 'NONE', *, *, #145, .F. ) ;
#29 = CONICAL_SURFACE ( 'NONE', #144, 6.299999999999999800, 0.3141592653620731100 ) ;
#30 = FACE_OUTER_BOUND ( 'NONE', #62, .T. ) ;
#31 = FACE_OUTER_BOUND ( 'NONE', #96, .T. ) ;
#32 = ORIENTED_EDGE ( 'NONE', *, *, #157, .T. ) ;
#33 = CYLINDRICAL_SURFACE ( 'NONE', #132, 7.000000000000000000 ) ;
#34 = VERTEX_POINT ( 'NONE', #307 ) ;
#35 = VERTEX_POINT ( 'NONE', #208 ) ;
#36 = VERTEX_POINT ( 'NONE', #188 ) ;
#37 = VERTEX_POINT ( 'NONE', #196 ) ;
#38 = VERTEX_POINT ( 'NONE', #303 ) ;
#39 = LINE ( 'NONE', #272, #110 ) ;
#40 = VERTEX_POINT ( 'NONE', #195 ) ;
#41 = ORIENTED_EDGE ( 'NONE', *, *, #149, .F. ) ;
#42 = VERTEX_POINT ( 'NONE', #306 ) ;
#43 = ORIENTED_EDGE ( 'NONE', *, *, #158, .F. ) ;
#44 = FACE_OUTER_BOUND ( 'NONE', #126, .T. ) ;
#45 = ORIENTED_EDGE ( 'NONE', *, *, #155, .F. ) ;
#46 = EDGE_LOOP ( 'NONE', ( #55, #54, #67, #58 ) ) ;
#47 = ORIENTED_EDGE ( 'NONE', *, *, #156, .T. ) ;
#48 = ORIENTED_EDGE ( 'NONE', *, *, #158, .T. ) ;
#49 = EDGE_LOOP ( 'NONE', ( #66, #52 ) ) ;
#50 = ORIENTED_EDGE ( 'NONE', *, *, #149, .T. ) ;
#51 = FACE_OUTER_BOUND ( 'NONE', #70, .T. ) ;
#52 = ORIENTED_EDGE ( 'NONE', *, *, #156, .F. ) ;
#53 = ORIENTED_EDGE ( 'NONE', *, *, #161, .T. ) ;
#54 = ORIENTED_EDGE ( 'NONE', *, *, #148, .T. ) ;
#55 = ORIENTED_EDGE ( 'NONE', *, *, #161, .F. ) ;
#56 = ORIENTED_EDGE ( 'NONE', *, *, #154, .T. ) ;
#57 = ORIENTED_EDGE ( 'NONE', *, *, #142, .F. ) ;
#58 = ORIENTED_EDGE ( 'NONE', *, *, #145, .T. ) ;
#59 = ORIENTED_EDGE ( 'NONE', *, *, #146, .F. ) ;
#60 = FACE_BOUND ( 'NONE', #49, .T. ) ;
#61 = FACE_OUTER_BOUND ( 'NONE', #114, .T. ) ;
#62 = EDGE_LOOP ( 'NONE', ( #48, #56, #47, #45 ) ) ;
#63 = ORIENTED_EDGE ( 'NONE', *, *, #162, .T. ) ;
#64 = ORIENTED_EDGE ( 'NONE', *, *, #163, .T. ) ;
#65 = CYLINDRICAL_SURFACE ( 'NONE', #140, 6.000000000000000000 ) ;
#66 = ORIENTED_EDGE ( 'NONE', *, *, #151, .F. ) ;
#67 = ORIENTED_EDGE ( 'NONE', *, *, #146, .T. ) ;
#68 = ORIENTED_EDGE ( 'NONE', *, *, #151, .T. ) ;
#69 = LINE ( 'NONE', #234, #14 ) ;
#70 = EDGE_LOOP ( 'NONE', ( #22, #129, #41, #88 ) ) ;
#71 = CLOSED_SHELL ( 'NONE', ( #9, #2, #6, #5, #7, #4, #3, #10, #1, #8 ) ) ;
#72 = ORIENTED_EDGE ( 'NONE', *, *, #160, .T. ) ;
#73 = VERTEX_POINT ( 'NONE', #187 ) ;
#74 = LINE ( 'NONE', #258, #24 ) ;
#75 = EDGE_LOOP ( 'NONE', ( #18, #11 ) ) ;
#76 = ORIENTED_EDGE ( 'NONE', *, *, #166, .F. ) ;
#77 = ORIENTED_EDGE ( 'NONE', *, *, #159, .T. ) ;
#78 = CIRCLE ( 'NONE', #173, 7.000000000000000000 ) ;
#79 = ORIENTED_EDGE ( 'NONE', *, *, #160, .F. ) ;
#80 = FACE_OUTER_BOUND ( 'NONE', #121, .T. ) ;
#81 = CYLINDRICAL_SURFACE ( 'NONE', #134, 6.000000000000000000 ) ;
#82 = ORIENTED_EDGE ( 'NONE', *, *, #138, .F. ) ;
#83 = CIRCLE ( 'NONE', #185, 6.299999999999997200 ) ;
#84 = SURFACE_STYLE_FILL_AREA ( #222 ) ;
#85 = CIRCLE ( 'NONE', #174, 7.000000000000000000 ) ;
#86 = LINE ( 'NONE', #291, #91 ) ;
#87 = CIRCLE ( 'NONE', #169, 6.299999999999999800 ) ;
#88 = ORIENTED_EDGE ( 'NONE', *, *, #157, .F. ) ;
#89 = ORIENTED_EDGE ( 'NONE', *, *, #152, .F. ) ;
#90 = CIRCLE ( 'NONE', #131, 6.299999999999997200 ) ;
#91 = VECTOR ( 'NONE', #293, 1000.000000000000000 ) ;
#92 = LINE ( 'NONE', #299, #100 ) ;
#93 = ORIENTED_EDGE ( 'NONE', *, *, #154, .F. ) ;
#94 = CIRCLE ( 'NONE', #135, 7.000000000000000000 ) ;
#95 = VECTOR ( 'NONE', #267, 1000.000000000000100 ) ;
#96 = EDGE_LOOP ( 'NONE', ( #93, #21, #111, #68 ) ) ;
#97 = PRESENTATION_STYLE_ASSIGNMENT (( #202 ) ) ;
#98 = SURFACE_STYLE_FILL_AREA ( #204 ) ;
#99 = COLOUR_RGB ( '',0.9882352941176471000, 0.8705882352941176600, 0.5490196078431373000 ) ;
#100 = VECTOR ( 'NONE', #302, 1000.000000000000200 ) ;
#101 = ORIENTED_EDGE ( 'NONE', *, *, #159, .F. ) ;
#102 = EDGE_LOOP ( 'NONE', ( #43, #76 ) ) ;
#103 = CONICAL_SURFACE ( 'NONE', #136, 6.299999999999999800, 0.3141592653620729500 ) ;
#104 = LINE ( 'NONE', #266, #107 ) ;
#105 = VERTEX_POINT ( 'NONE', #305 ) ;
#106 = SHAPE_DEFINITION_REPRESENTATION ( #308, #312 ) ;
#107 = VECTOR ( 'NONE', #259, 1000.000000000000000 ) ;
#108 = VERTEX_POINT ( 'NONE', #304 ) ;
#109 = CIRCLE ( 'NONE', #170, 6.000000000000000000 ) ;
#110 = VECTOR ( 'NONE', #292, 1000.000000000000100 ) ;
#111 = ORIENTED_EDGE ( 'NONE', *, *, #155, .T. ) ;
#112 = VECTOR ( 'NONE', #286, 1000.000000000000000 ) ;
#113 = ORIENTED_EDGE ( 'NONE', *, *, #163, .F. ) ;
#114 = EDGE_LOOP ( 'NONE', ( #50, #53, #72, #59 ) ) ;
#115 = EDGE_LOOP ( 'NONE', ( #101, #120, #79, #122 ) ) ;
#116 = CIRCLE ( 'NONE', #171, 6.000000000000000000 ) ;
#117 = VERTEX_POINT ( 'NONE', #199 ) ;
#118 = CONICAL_SURFACE ( 'NONE', #141, 6.299999999999999800, 0.3141592653620731100 ) ;
#119 = CIRCLE ( 'NONE', #172, 6.000000000000000000 ) ;
#120 = ORIENTED_EDGE ( 'NONE', *, *, #142, .T. ) ;
#121 = EDGE_LOOP ( 'NONE', ( #57, #113, #63, #28 ) ) ;
#122 = ORIENTED_EDGE ( 'NONE', *, *, #162, .F. ) ;
#123 = LINE ( 'NONE', #268, #112 ) ;
#124 = FACE_OUTER_BOUND ( 'NONE', #46, .T. ) ;
#125 = CIRCLE ( 'NONE', #139, 6.299999999999999800 ) ;
#126 = EDGE_LOOP ( 'NONE', ( #89, #82, #32, #12 ) ) ;
#127 = LINE ( 'NONE', #260, #95 ) ;
#128 = PRESENTATION_STYLE_ASSIGNMENT (( #214 ) ) ;
#129 = ORIENTED_EDGE ( 'NONE', *, *, #152, .T. ) ;
#130 = EDGE_LOOP ( 'NONE', ( #64, #77 ) ) ;
#131 = AXIS2_PLACEMENT_3D ( 'NONE', #298, #296, #294 ) ;
#132 = AXIS2_PLACEMENT_3D ( 'NONE', #252, #273, #263 ) ;
#133 = AXIS2_PLACEMENT_3D ( 'NONE', #274, #276, #253 ) ;
#134 = AXIS2_PLACEMENT_3D ( 'NONE', #224, #218, #226 ) ;
#135 = AXIS2_PLACEMENT_3D ( 'NONE', #238, #237, #236 ) ;
#136 = AXIS2_PLACEMENT_3D ( 'NONE', #210, #225, #216 ) ;
#137 = AXIS2_PLACEMENT_3D ( 'NONE', #231, #227, #233 ) ;
#138 = EDGE_CURVE ( 'NONE', #34, #117, #90, .T. ) ;
#139 = AXIS2_PLACEMENT_3D ( 'NONE', #242, #241, #240 ) ;
#140 = AXIS2_PLACEMENT_3D ( 'NONE', #243, #235, #244 ) ;
#141 = AXIS2_PLACEMENT_3D ( 'NONE', #250, #245, #257 ) ;
#142 = EDGE_CURVE ( 'NONE', #13, #105, #92, .T. ) ;
#143 = AXIS2_PLACEMENT_3D ( 'NONE', #297, #301, #251 ) ;
#144 = AXIS2_PLACEMENT_3D ( 'NONE', #295, #282, #289 ) ;
#145 = EDGE_CURVE ( 'NONE', #105, #42, #26, .T. ) ;
#146 = EDGE_CURVE ( 'NONE', #38, #105, #86, .T. ) ;
#147 =( GEOMETRIC_REPRESENTATION_CONTEXT ( 3 ) GLOBAL_UNCERTAINTY_ASSIGNED_CONTEXT ( ( #314 ) ) GLOBAL_UNIT_ASSIGNED_CONTEXT ( ( #230, #209, #207 ) ) REPRESENTATION_CONTEXT ( 'NONE', 'WORKASPACE' ) );
#148 = EDGE_CURVE ( 'NONE', #40, #38, #78, .T. ) ;
#149 = EDGE_CURVE ( 'NONE', #38, #40, #85, .T. ) ;
#150 = MECHANICAL_DESIGN_GEOMETRIC_PRESENTATION_REPRESENTATION (  '', ( #168 ), #164 ) ;
#151 = EDGE_CURVE ( 'NONE', #36, #37, #119, .T. ) ;
#152 = EDGE_CURVE ( 'NONE', #117, #40, #39, .T. ) ;
#153 = EDGE_CURVE ( 'NONE', #117, #34, #83, .T. ) ;
#154 = EDGE_CURVE ( 'NONE', #108, #37, #123, .T. ) ;
#155 = EDGE_CURVE ( 'NONE', #73, #36, #104, .T. ) ;
#156 = EDGE_CURVE ( 'NONE', #37, #36, #116, .T. ) ;
#157 = EDGE_CURVE ( 'NONE', #34, #38, #127, .T. ) ;
#158 = EDGE_CURVE ( 'NONE', #73, #108, #109, .T. ) ;
#159 = EDGE_CURVE ( 'NONE', #13, #35, #125, .T. ) ;
#160 = EDGE_CURVE ( 'NONE', #42, #105, #94, .T. ) ;
#161 = EDGE_CURVE ( 'NONE', #40, #42, #74, .T. ) ;
#162 = EDGE_CURVE ( 'NONE', #35, #42, #69, .T. ) ;
#163 = EDGE_CURVE ( 'NONE', #35, #13, #87, .T. ) ;
#164 =( GEOMETRIC_REPRESENTATION_CONTEXT ( 3 ) GLOBAL_UNCERTAINTY_ASSIGNED_CONTEXT ( ( #311 ) ) GLOBAL_UNIT_ASSIGNED_CONTEXT ( ( #213, #212, #211 ) ) REPRESENTATION_CONTEXT ( 'NONE', 'WORKASPACE' ) );
#165 = PRESENTATION_LAYER_ASSIGNMENT (  '', '', ( #168 ) ) ;
#166 = EDGE_CURVE ( 'NONE', #108, #73, #16, .T. ) ;
#167 = AXIS2_PLACEMENT_3D ( 'NONE', #220, #219, #217 ) ;
#168 = STYLED_ITEM ( 'NONE', ( #128 ), #310 ) ;
#169 = AXIS2_PLACEMENT_3D ( 'NONE', #229, #228, #223 ) ;
#170 = AXIS2_PLACEMENT_3D ( 'NONE', #249, #248, #247 ) ;
#171 = AXIS2_PLACEMENT_3D ( 'NONE', #256, #255, #254 ) ;
#172 = AXIS2_PLACEMENT_3D ( 'NONE', #271, #270, #269 ) ;
#173 = AXIS2_PLACEMENT_3D ( 'NONE', #285, #284, #283 ) ;
#174 = AXIS2_PLACEMENT_3D ( 'NONE', #280, #279, #278 ) ;
#175 = AXIS2_PLACEMENT_3D ( 'NONE', #290, #288, #287 ) ;
#176 =( GEOMETRIC_REPRESENTATION_CONTEXT ( 3 ) GLOBAL_UNCERTAINTY_ASSIGNED_CONTEXT ( ( #313 ) ) GLOBAL_UNIT_ASSIGNED_CONTEXT ( ( #201, #200, #198 ) ) REPRESENTATION_CONTEXT ( 'NONE', 'WORKASPACE' ) );
#177 = PRESENTATION_LAYER_ASSIGNMENT (  '', '', ( #178 ) ) ;
#178 = STYLED_ITEM ( 'NONE', ( #97 ), #312 ) ;
#179 = AXIS2_PLACEMENT_3D ( 'NONE', #275, #300, #281 ) ;
#180 = MECHANICAL_DESIGN_GEOMETRIC_PRESENTATION_REPRESENTATION (  '', ( #178 ), #176 ) ;
#181 = PRODUCT_RELATED_PRODUCT_CATEGORY ( 'part', '', ( #186 ) ) ;
#182 = PRODUCT_DEFINITION_FORMATION_WITH_SPECIFIED_SOURCE ( 'TUTTO', '', #186, .NOT_KNOWN. ) ;
#183 = PRODUCT_DEFINITION ( 'NON CONOSCIUTO', '', #182, #309 ) ;
#184 = AXIS2_PLACEMENT_3D ( 'NONE', #197, #194, #193 ) ;
#185 = AXIS2_PLACEMENT_3D ( 'NONE', #265, #262, #261 ) ;
#186 = PRODUCT ( '107400002Y100A', '107400002Y100A', '', ( #192 ) ) ;
#187 = CARTESIAN_POINT ( 'NONE',  ( 0.0000000000000000000, 0.0000000000000000000, 6.000000000000000000 ) ) ;
#188 = CARTESIAN_POINT ( 'NONE',  ( 0.0000000000000000000, 8.000000000000000000, 6.000000000000000000 ) ) ;
#189 = APPLICATION_PROTOCOL_DEFINITION ( 'draft international standard', 'automotive_design', 1998, #190 ) ;
#190 = APPLICATION_CONTEXT ( 'automotive_design' ) ;
#191 = CARTESIAN_POINT ( 'NONE',  ( 8.143901214329898800E-016, 0.0000000000000000000, -6.299999999999999800 ) ) ;
#192 = PRODUCT_CONTEXT ( 'NONE', #205, 'mechanical' ) ;
#193 = DIRECTION ( 'NONE',  ( 1.000000000000000000, 0.0000000000000000000, 0.0000000000000000000 ) ) ;
#194 = DIRECTION ( 'NONE',  ( 0.0000000000000000000, 0.0000000000000000000, 1.000000000000000000 ) ) ;
#195 = CARTESIAN_POINT ( 'NONE',  ( 8.572527594031473200E-016, 5.845621524000033100, 7.000000000000000000 ) ) ;
#196 = CARTESIAN_POINT ( 'NONE',  ( 7.347880794884119700E-016, 8.000000000000000000, -6.000000000000000000 ) ) ;
#197 = CARTESIAN_POINT ( 'NONE',  ( 0.0000000000000000000, 0.0000000000000000000, 0.0000000000000000000 ) ) ;
#198 =( NAMED_UNIT ( * ) SI_UNIT ( $, .STERADIAN. ) SOLID_ANGLE_UNIT ( ) );
#199 = CARTESIAN_POINT ( 'NONE',  ( 8.143901214329897800E-016, 8.000000000000007100, 6.299999999999997200 ) ) ;
#200 =( NAMED_UNIT ( * ) PLANE_ANGLE_UNIT ( ) SI_UNIT ( $, .RADIAN. ) );
#201 =( LENGTH_UNIT ( ) NAMED_UNIT ( * ) SI_UNIT ( .MILLI., .METRE. ) );
#202 = SURFACE_STYLE_USAGE ( .BOTH. , #203 ) ;
#203 = SURFACE_SIDE_STYLE ('',( #98 ) ) ;
#204 = FILL_AREA_STYLE ('',( #221 ) ) ;
#205 = APPLICATION_CONTEXT ( 'automotive_design' ) ;
#206 = APPLICATION_PROTOCOL_DEFINITION ( 'draft international standard', 'automotive_design', 1998, #205 ) ;
#207 =( NAMED_UNIT ( * ) SI_UNIT ( $, .STERADIAN. ) SOLID_ANGLE_UNIT ( ) );
#208 = CARTESIAN_POINT ( 'NONE',  ( 0.0000000000000000000, 0.0000000000000000000, 6.299999999999999800 ) ) ;
#209 =( NAMED_UNIT ( * ) PLANE_ANGLE_UNIT ( ) SI_UNIT ( $, .RADIAN. ) );
#210 = CARTESIAN_POINT ( 'NONE',  ( 0.0000000000000000000, 8.000000000000000000, 0.0000000000000000000 ) ) ;
#211 =( NAMED_UNIT ( * ) SI_UNIT ( $, .STERADIAN. ) SOLID_ANGLE_UNIT ( ) );
#212 =( NAMED_UNIT ( * ) PLANE_ANGLE_UNIT ( ) SI_UNIT ( $, .RADIAN. ) );
#213 =( LENGTH_UNIT ( ) NAMED_UNIT ( * ) SI_UNIT ( .MILLI., .METRE. ) );
#214 = SURFACE_STYLE_USAGE ( .BOTH. , #215 ) ;
#215 = SURFACE_SIDE_STYLE ('',( #84 ) ) ;
#216 = DIRECTION ( 'NONE',  ( 0.0000000000000000000, 0.0000000000000000000, -1.000000000000000000 ) ) ;
#217 = DIRECTION ( 'NONE',  ( 0.0000000000000000000, 0.0000000000000000000, 1.000000000000000000 ) ) ;
#218 = DIRECTION ( 'NONE',  ( 0.0000000000000000000, 1.000000000000000000, 0.0000000000000000000 ) ) ;
#219 = DIRECTION ( 'NONE',  ( -0.0000000000000000000, -1.000000000000000000, -0.0000000000000000000 ) ) ;
#220 = CARTESIAN_POINT ( 'NONE',  ( 0.0000000000000000000, 0.0000000000000000000, 0.0000000000000000000 ) ) ;
#221 = FILL_AREA_STYLE_COLOUR ( '', #99 ) ;
#222 = FILL_AREA_STYLE ('',( #239 ) ) ;
#223 = DIRECTION ( 'NONE',  ( 0.0000000000000000000, 0.0000000000000000000, 1.000000000000000000 ) ) ;
#224 = CARTESIAN_POINT ( 'NONE',  ( 0.0000000000000000000, 0.0000000000000000000, 0.0000000000000000000 ) ) ;
#225 = DIRECTION ( 'NONE',  ( 0.0000000000000000000, -1.000000000000000000, 0.0000000000000000000 ) ) ;
#226 = DIRECTION ( 'NONE',  ( 0.0000000000000000000, 0.0000000000000000000, 1.000000000000000000 ) ) ;
#227 = DIRECTION ( 'NONE',  ( 0.0000000000000000000, -1.000000000000000000, 0.0000000000000000000 ) ) ;
#228 = DIRECTION ( 'NONE',  ( 0.0000000000000000000, -1.000000000000000000, -0.0000000000000000000 ) ) ;
#229 = CARTESIAN_POINT ( 'NONE',  ( 0.0000000000000000000, 0.0000000000000000000, 0.0000000000000000000 ) ) ;
#230 =( LENGTH_UNIT ( ) NAMED_UNIT ( * ) SI_UNIT ( .MILLI., .METRE. ) );
#231 = CARTESIAN_POINT ( 'NONE',  ( 0.0000000000000000000, 5.845621524000000200, 0.0000000000000000000 ) ) ;
#232 = DIRECTION ( 'NONE',  ( 0.0000000000000000000, 0.9510565162941975200, 0.3090169943778897100 ) ) ;
#233 = DIRECTION ( 'NONE',  ( 0.0000000000000000000, 0.0000000000000000000, -1.000000000000000000 ) ) ;
#234 = CARTESIAN_POINT ( 'NONE',  ( 0.0000000000000000000, 0.0000000000000000000, 6.299999999999999800 ) ) ;
#235 = DIRECTION ( 'NONE',  ( 0.0000000000000000000, 1.000000000000000000, 0.0000000000000000000 ) ) ;
#236 = DIRECTION ( 'NONE',  ( 0.0000000000000000000, -1.220501874169396400E-014, 1.000000000000000000 ) ) ;
#237 = DIRECTION ( 'NONE',  ( 0.0000000000000000000, 1.000000000000000000, 0.0000000000000000000 ) ) ;
#238 = CARTESIAN_POINT ( 'NONE',  ( 0.0000000000000000000, 2.154378476000085000, 0.0000000000000000000 ) ) ;
#239 = FILL_AREA_STYLE_COLOUR ( '', #15 ) ;
#240 = DIRECTION ( 'NONE',  ( 0.0000000000000000000, 0.0000000000000000000, 1.000000000000000000 ) ) ;
#241 = DIRECTION ( 'NONE',  ( 0.0000000000000000000, -1.000000000000000000, -0.0000000000000000000 ) ) ;
#242 = CARTESIAN_POINT ( 'NONE',  ( 0.0000000000000000000, 0.0000000000000000000, 0.0000000000000000000 ) ) ;
#243 = CARTESIAN_POINT ( 'NONE',  ( 0.0000000000000000000, 0.0000000000000000000, 0.0000000000000000000 ) ) ;
#244 = DIRECTION ( 'NONE',  ( 0.0000000000000000000, 0.0000000000000000000, 1.000000000000000000 ) ) ;
#245 = DIRECTION ( 'NONE',  ( -0.0000000000000000000, 1.000000000000000000, 0.0000000000000000000 ) ) ;
#246 = DIRECTION ( 'NONE',  ( 0.0000000000000000000, -1.000000000000000000, 0.0000000000000000000 ) ) ;
#247 = DIRECTION ( 'NONE',  ( 0.0000000000000000000, 0.0000000000000000000, 1.000000000000000000 ) ) ;
#248 = DIRECTION ( 'NONE',  ( -0.0000000000000000000, -1.000000000000000000, -0.0000000000000000000 ) ) ;
#249 = CARTESIAN_POINT ( 'NONE',  ( 0.0000000000000000000, 0.0000000000000000000, 0.0000000000000000000 ) ) ;
#250 = CARTESIAN_POINT ( 'NONE',  ( 0.0000000000000000000, 0.0000000000000000000, 0.0000000000000000000 ) ) ;
#251 = DIRECTION ( 'NONE',  ( 0.0000000000000000000, 0.0000000000000000000, -1.000000000000000000 ) ) ;
#252 = CARTESIAN_POINT ( 'NONE',  ( 0.0000000000000000000, 5.845621524000000200, 0.0000000000000000000 ) ) ;
#253 = DIRECTION ( 'NONE',  ( 0.0000000000000000000, 0.0000000000000000000, 1.000000000000000000 ) ) ;
#254 = DIRECTION ( 'NONE',  ( 0.0000000000000000000, 0.0000000000000000000, 1.000000000000000000 ) ) ;
#255 = DIRECTION ( 'NONE',  ( 0.0000000000000000000, 1.000000000000000000, 0.0000000000000000000 ) ) ;
#256 = CARTESIAN_POINT ( 'NONE',  ( 0.0000000000000000000, 8.000000000000000000, 0.0000000000000000000 ) ) ;
#257 = DIRECTION ( 'NONE',  ( 0.0000000000000000000, 0.0000000000000000000, 1.000000000000000000 ) ) ;
#258 = CARTESIAN_POINT ( 'NONE',  ( 8.572527594031473200E-016, 5.845621524000000200, 7.000000000000000000 ) ) ;
#259 = DIRECTION ( 'NONE',  ( 0.0000000000000000000, 1.000000000000000000, 0.0000000000000000000 ) ) ;
#260 = CARTESIAN_POINT ( 'NONE',  ( 0.0000000000000000000, 8.000000000000000000, -6.299999999999999800 ) ) ;
#261 = DIRECTION ( 'NONE',  ( 0.0000000000000000000, 0.0000000000000000000, -1.000000000000000000 ) ) ;
#262 = DIRECTION ( 'NONE',  ( -0.0000000000000000000, 1.000000000000000000, -0.0000000000000000000 ) ) ;
#263 = DIRECTION ( 'NONE',  ( 0.0000000000000000000, 0.0000000000000000000, -1.000000000000000000 ) ) ;
#264 = PLANE ( 'NONE',  #133 ) ;
#265 = CARTESIAN_POINT ( 'NONE',  ( 0.0000000000000000000, 8.000000000000007100, 0.0000000000000000000 ) ) ;
#266 = CARTESIAN_POINT ( 'NONE',  ( 0.0000000000000000000, 0.0000000000000000000, 6.000000000000000000 ) ) ;
#267 = DIRECTION ( 'NONE',  ( 0.0000000000000000000, -0.9510565162941975200, -0.3090169943778896000 ) ) ;
#268 = CARTESIAN_POINT ( 'NONE',  ( 7.347880794884119700E-016, 0.0000000000000000000, -6.000000000000000000 ) ) ;
#269 = DIRECTION ( 'NONE',  ( 0.0000000000000000000, 0.0000000000000000000, 1.000000000000000000 ) ) ;
#270 = DIRECTION ( 'NONE',  ( 0.0000000000000000000, 1.000000000000000000, 0.0000000000000000000 ) ) ;
#271 = CARTESIAN_POINT ( 'NONE',  ( 0.0000000000000000000, 8.000000000000000000, 0.0000000000000000000 ) ) ;
#272 = CARTESIAN_POINT ( 'NONE',  ( 7.715274834628325400E-016, 8.000000000000000000, 6.299999999999999800 ) ) ;
#273 = DIRECTION ( 'NONE',  ( 0.0000000000000000000, -1.000000000000000000, 0.0000000000000000000 ) ) ;
#274 = CARTESIAN_POINT ( 'NONE',  ( -6.375600000000000400, 8.000000000000000000, -6.375600000000000400 ) ) ;
#275 = CARTESIAN_POINT ( 'NONE',  ( -6.375600000000000400, 0.0000000000000000000, 6.375600000000000400 ) ) ;
#276 = DIRECTION ( 'NONE',  ( 0.0000000000000000000, 1.000000000000000000, 0.0000000000000000000 ) ) ;
#277 = PLANE ( 'NONE',  #179 ) ;
#278 = DIRECTION ( 'NONE',  ( 0.0000000000000000000, -4.708535149079904900E-015, -1.000000000000000000 ) ) ;
#279 = DIRECTION ( 'NONE',  ( 0.0000000000000000000, -1.000000000000000000, 0.0000000000000000000 ) ) ;
#280 = CARTESIAN_POINT ( 'NONE',  ( 0.0000000000000000000, 5.845621524000033100, 0.0000000000000000000 ) ) ;
#281 = DIRECTION ( 'NONE',  ( 0.0000000000000000000, 0.0000000000000000000, -1.000000000000000000 ) ) ;
#282 = DIRECTION ( 'NONE',  ( -0.0000000000000000000, 1.000000000000000000, 0.0000000000000000000 ) ) ;
#283 = DIRECTION ( 'NONE',  ( 0.0000000000000000000, -4.708535149079904900E-015, -1.000000000000000000 ) ) ;
#284 = DIRECTION ( 'NONE',  ( 0.0000000000000000000, -1.000000000000000000, 0.0000000000000000000 ) ) ;
#285 = CARTESIAN_POINT ( 'NONE',  ( 0.0000000000000000000, 5.845621524000033100, 0.0000000000000000000 ) ) ;
#286 = DIRECTION ( 'NONE',  ( 0.0000000000000000000, 1.000000000000000000, 0.0000000000000000000 ) ) ;
#287 = DIRECTION ( 'NONE',  ( 0.0000000000000000000, -1.220501874169396400E-014, 1.000000000000000000 ) ) ;
#288 = DIRECTION ( 'NONE',  ( 0.0000000000000000000, 1.000000000000000000, 0.0000000000000000000 ) ) ;
#289 = DIRECTION ( 'NONE',  ( 0.0000000000000000000, 0.0000000000000000000, 1.000000000000000000 ) ) ;
#290 = CARTESIAN_POINT ( 'NONE',  ( 0.0000000000000000000, 2.154378476000085000, 0.0000000000000000000 ) ) ;
#291 = CARTESIAN_POINT ( 'NONE',  ( 0.0000000000000000000, 5.845621524000000200, -7.000000000000000000 ) ) ;
#292 = DIRECTION ( 'NONE',  ( 3.784366730470181200E-017, -0.9510565162941975200, 0.3090169943778896000 ) ) ;
#293 = DIRECTION ( 'NONE',  ( 0.0000000000000000000, -1.000000000000000000, 0.0000000000000000000 ) ) ;
#294 = DIRECTION ( 'NONE',  ( 0.0000000000000000000, 0.0000000000000000000, -1.000000000000000000 ) ) ;
#295 = CARTESIAN_POINT ( 'NONE',  ( 0.0000000000000000000, 0.0000000000000000000, 0.0000000000000000000 ) ) ;
#296 = DIRECTION ( 'NONE',  ( -0.0000000000000000000, 1.000000000000000000, -0.0000000000000000000 ) ) ;
#297 = CARTESIAN_POINT ( 'NONE',  ( 0.0000000000000000000, 8.000000000000000000, 0.0000000000000000000 ) ) ;
#298 = CARTESIAN_POINT ( 'NONE',  ( 0.0000000000000000000, 8.000000000000007100, 0.0000000000000000000 ) ) ;
#299 = CARTESIAN_POINT ( 'NONE',  ( 7.715274834628325400E-016, 0.0000000000000000000, -6.299999999999999800 ) ) ;
#300 = DIRECTION ( 'NONE',  ( 0.0000000000000000000, -1.000000000000000000, 0.0000000000000000000 ) ) ;
#301 = DIRECTION ( 'NONE',  ( 0.0000000000000000000, -1.000000000000000000, 0.0000000000000000000 ) ) ;
#302 = DIRECTION ( 'NONE',  ( 3.784366730470183000E-017, 0.9510565162941975200, -0.3090169943778897100 ) ) ;
#303 = CARTESIAN_POINT ( 'NONE',  ( 0.0000000000000000000, 5.845621524000000200, -7.000000000000000000 ) ) ;
#304 = CARTESIAN_POINT ( 'NONE',  ( 7.347880794884119700E-016, 0.0000000000000000000, -6.000000000000000000 ) ) ;
#305 = CARTESIAN_POINT ( 'NONE',  ( 0.0000000000000000000, 2.154378476000085000, -7.000000000000000000 ) ) ;
#306 = CARTESIAN_POINT ( 'NONE',  ( 8.572527594031473200E-016, 2.154378476000085000, 7.000000000000000000 ) ) ;
#307 = CARTESIAN_POINT ( 'NONE',  ( 0.0000000000000000000, 8.000000000000007100, -6.299999999999997200 ) ) ;
#308 = PRODUCT_DEFINITION_SHAPE ( 'NONE', 'NONE',  #183 ) ;
#309 = PRODUCT_DEFINITION_CONTEXT ( 'detailed design', #190, 'design' ) ;
#310 = MANIFOLD_SOLID_BREP ( 'Importato1', #71 ) ;
#311 = UNCERTAINTY_MEASURE_WITH_UNIT (LENGTH_MEASURE( 1.000000000000000100E-005 ), #213, 'distance_accuracy_value', 'NONE');
#312 = ADVANCED_BREP_SHAPE_REPRESENTATION ( '107400002Y100A', ( #310, #184 ), #147 ) ;
#313 = UNCERTAINTY_MEASURE_WITH_UNIT (LENGTH_MEASURE( 1.000000000000000100E-005 ), #201, 'distance_accuracy_value', 'NONE');
#314 = UNCERTAINTY_MEASURE_WITH_UNIT (LENGTH_MEASURE( 1.000000000000000100E-005 ), #230, 'distance_accuracy_value', 'NONE');
ENDSEC;
END-ISO-10303-21;
