ISO-10303-21;
HEADER;
FILE_DESCRIPTION (( 'STEP AP214' ),
    '1' );
FILE_NAME ('107600002Y100A.STEP',
    '2013-02-25T17:25:46',
    ( '' ),
    ( '' ),
    'SwSTEP 2.0',
    'SolidWorks 2012',
    '' );
FILE_SCHEMA (( 'AUTOMOTIVE_DESIGN' ));
ENDSEC;

DATA;
#1 = ADVANCED_FACE ( 'NONE', ( #151 ), #192, .T. ) ;
#2 = ADVANCED_FACE ( 'NONE', ( #143 ), #104, .F. ) ;
#3 = ADVANCED_FACE ( 'NONE', ( #165 ), #149, .T. ) ;
#4 = ADVANCED_FACE ( 'NONE', ( #161, #162 ), #291, .T. ) ;
#5 = ADVANCED_FACE ( 'NONE', ( #74 ), #168, .T. ) ;
#6 = ADVANCED_FACE ( 'NONE', ( #172, #171 ), #299, .T. ) ;
#7 = ADVANCED_FACE ( 'NONE', ( #154 ), #176, .T. ) ;
#8 = ADVANCED_FACE ( 'NONE', ( #170 ), #167, .F. ) ;
#9 = ADVANCED_FACE ( 'NONE', ( #175 ), #166, .T. ) ;
#10 = ADVANCED_FACE ( 'NONE', ( #187 ), #97, .T. ) ;
#11 = EDGE_CURVE ( 'NONE', #90, #88, #95, .T. ) ;
#12 = PRODUCT_RELATED_PRODUCT_CATEGORY ( 'part', '', ( #66 ) ) ;
#13 = PRODUCT_DEFINITION_FORMATION_WITH_SPECIFIED_SOURCE ( 'TUTTO', '', #66, .NOT_KNOWN. ) ;
#14 = AXIS2_PLACEMENT_3D ( 'NONE', #255, #254, #253 ) ;
#15 = PRODUCT_DEFINITION ( 'NON CONOSCIUTO', '', #13, #67 ) ;
#16 = AXIS2_PLACEMENT_3D ( 'NONE', #208, #194, #218 ) ;
#17 = EDGE_CURVE ( 'NONE', #96, #118, #169, .T. ) ;
#18 = EDGE_CURVE ( 'NONE', #156, #84, #144, .T. ) ;
#19 =( GEOMETRIC_REPRESENTATION_CONTEXT ( 3 ) GLOBAL_UNCERTAINTY_ASSIGNED_CONTEXT ( ( #70 ) ) GLOBAL_UNIT_ASSIGNED_CONTEXT ( ( #197, #196, #195 ) ) REPRESENTATION_CONTEXT ( 'NONE', 'WORKASPACE' ) );
#20 = MECHANICAL_DESIGN_GEOMETRIC_PRESENTATION_REPRESENTATION (  '', ( #22 ), #19 ) ;
#21 = PRESENTATION_LAYER_ASSIGNMENT (  '', '', ( #22 ) ) ;
#22 = STYLED_ITEM ( 'NONE', ( #130 ), #73 ) ;
#23 =( GEOMETRIC_REPRESENTATION_CONTEXT ( 3 ) GLOBAL_UNCERTAINTY_ASSIGNED_CONTEXT ( ( #71 ) ) GLOBAL_UNIT_ASSIGNED_CONTEXT ( ( #205, #204, #203 ) ) REPRESENTATION_CONTEXT ( 'NONE', 'WORKASPACE' ) );
#24 =( GEOMETRIC_REPRESENTATION_CONTEXT ( 3 ) GLOBAL_UNCERTAINTY_ASSIGNED_CONTEXT ( ( #72 ) ) GLOBAL_UNIT_ASSIGNED_CONTEXT ( ( #226, #225, #222 ) ) REPRESENTATION_CONTEXT ( 'NONE', 'WORKASPACE' ) );
#25 = MECHANICAL_DESIGN_GEOMETRIC_PRESENTATION_REPRESENTATION (  '', ( #27 ), #24 ) ;
#26 = PRESENTATION_LAYER_ASSIGNMENT (  '', '', ( #27 ) ) ;
#27 = STYLED_ITEM ( 'NONE', ( #78 ), #69 ) ;
#28 = AXIS2_PLACEMENT_3D ( 'NONE', #237, #235, #233 ) ;
#29 = AXIS2_PLACEMENT_3D ( 'NONE', #243, #242, #241 ) ;
#30 = AXIS2_PLACEMENT_3D ( 'NONE', #252, #250, #248 ) ;
#31 = AXIS2_PLACEMENT_3D ( 'NONE', #266, #265, #264 ) ;
#32 = EDGE_CURVE ( 'NONE', #92, #87, #93, .T. ) ;
#33 = AXIS2_PLACEMENT_3D ( 'NONE', #310, #313, #309 ) ;
#34 = AXIS2_PLACEMENT_3D ( 'NONE', #230, #236, #223 ) ;
#35 = AXIS2_PLACEMENT_3D ( 'NONE', #234, #247, #246 ) ;
#36 = AXIS2_PLACEMENT_3D ( 'NONE', #267, #256, #251 ) ;
#37 = AXIS2_PLACEMENT_3D ( 'NONE', #271, #314, #260 ) ;
#38 = AXIS2_PLACEMENT_3D ( 'NONE', #307, #306, #308 ) ;
#39 = AXIS2_PLACEMENT_3D ( 'NONE', #311, #295, #312 ) ;
#40 = AXIS2_PLACEMENT_3D ( 'NONE', #283, #279, #276 ) ;
#41 = AXIS2_PLACEMENT_3D ( 'NONE', #302, #300, #305 ) ;
#42 = AXIS2_PLACEMENT_3D ( 'NONE', #297, #296, #303 ) ;
#43 = AXIS2_PLACEMENT_3D ( 'NONE', #304, #298, #301 ) ;
#44 = AXIS2_PLACEMENT_3D ( 'NONE', #289, #288, #293 ) ;
#45 = AXIS2_PLACEMENT_3D ( 'NONE', #294, #290, #292 ) ;
#46 = AXIS2_PLACEMENT_3D ( 'NONE', #277, #272, #224 ) ;
#47 = AXIS2_PLACEMENT_3D ( 'NONE', #278, #284, #282 ) ;
#48 = AXIS2_PLACEMENT_3D ( 'NONE', #286, #287, #273 ) ;
#49 = EDGE_CURVE ( 'NONE', #112, #75, #102, .T. ) ;
#50 = EDGE_CURVE ( 'NONE', #87, #89, #99, .T. ) ;
#51 = EDGE_CURVE ( 'NONE', #89, #91, #100, .T. ) ;
#52 = AXIS2_PLACEMENT_3D ( 'NONE', #262, #261, #259 ) ;
#53 = EDGE_CURVE ( 'NONE', #84, #118, #122, .T. ) ;
#54 = EDGE_CURVE ( 'NONE', #96, #156, #190, .T. ) ;
#55 = EDGE_CURVE ( 'NONE', #90, #75, #164, .T. ) ;
#56 = EDGE_CURVE ( 'NONE', #88, #112, #174, .T. ) ;
#57 = EDGE_CURVE ( 'NONE', #91, #89, #189, .T. ) ;
#58 = EDGE_CURVE ( 'NONE', #118, #84, #182, .T. ) ;
#59 = EDGE_CURVE ( 'NONE', #92, #91, #183, .T. ) ;
#60 = EDGE_CURVE ( 'NONE', #156, #96, #152, .T. ) ;
#61 = EDGE_CURVE ( 'NONE', #118, #89, #140, .T. ) ;
#62 = EDGE_CURVE ( 'NONE', #88, #90, #139, .T. ) ;
#63 = EDGE_CURVE ( 'NONE', #75, #112, #137, .T. ) ;
#64 = EDGE_CURVE ( 'NONE', #87, #92, #136, .T. ) ;
#65 = EDGE_CURVE ( 'NONE', #84, #91, #155, .T. ) ;
#66 = PRODUCT ( '107600002Y100A', '107600002Y100A', '', ( #209 ) ) ;
#67 = PRODUCT_DEFINITION_CONTEXT ( 'detailed design', #257, 'design' ) ;
#68 = PRODUCT_DEFINITION_SHAPE ( 'NONE', 'NONE',  #15 ) ;
#69 = MANIFOLD_SOLID_BREP ( 'Importato1', #110 ) ;
#70 = UNCERTAINTY_MEASURE_WITH_UNIT (LENGTH_MEASURE( 1.000000000000000100E-005 ), #197, 'distance_accuracy_value', 'NONE');
#71 = UNCERTAINTY_MEASURE_WITH_UNIT (LENGTH_MEASURE( 1.000000000000000100E-005 ), #205, 'distance_accuracy_value', 'NONE');
#72 = UNCERTAINTY_MEASURE_WITH_UNIT (LENGTH_MEASURE( 1.000000000000000100E-005 ), #226, 'distance_accuracy_value', 'NONE');
#73 = ADVANCED_BREP_SHAPE_REPRESENTATION ( '107600002Y100A', ( #69, #16 ), #23 ) ;
#74 = FACE_OUTER_BOUND ( 'NONE', #107, .T. ) ;
#75 = VERTEX_POINT ( 'NONE', #232 ) ;
#76 = ORIENTED_EDGE ( 'NONE', *, *, #61, .T. ) ;
#77 = ORIENTED_EDGE ( 'NONE', *, *, #32, .F. ) ;
#78 = PRESENTATION_STYLE_ASSIGNMENT (( #227 ) ) ;
#79 = EDGE_LOOP ( 'NONE', ( #77, #186, #109, #127 ) ) ;
#80 = EDGE_LOOP ( 'NONE', ( #188, #121 ) ) ;
#81 = ORIENTED_EDGE ( 'NONE', *, *, #17, .T. ) ;
#82 = ORIENTED_EDGE ( 'NONE', *, *, #18, .T. ) ;
#83 = EDGE_LOOP ( 'NONE', ( #129, #158, #94, #145 ) ) ;
#84 = VERTEX_POINT ( 'NONE', #221 ) ;
#85 = EDGE_LOOP ( 'NONE', ( #124, #81, #113, #108 ) ) ;
#86 = EDGE_LOOP ( 'NONE', ( #125, #133, #160, #115 ) ) ;
#87 = VERTEX_POINT ( 'NONE', #220 ) ;
#88 = VERTEX_POINT ( 'NONE', #216 ) ;
#89 = VERTEX_POINT ( 'NONE', #231 ) ;
#90 = VERTEX_POINT ( 'NONE', #214 ) ;
#91 = VERTEX_POINT ( 'NONE', #238 ) ;
#92 = VERTEX_POINT ( 'NONE', #213 ) ;
#93 = CIRCLE ( 'NONE', #37, 6.299999999999999800 ) ;
#94 = ORIENTED_EDGE ( 'NONE', *, *, #65, .T. ) ;
#95 = CIRCLE ( 'NONE', #40, 6.000000000000000000 ) ;
#96 = VERTEX_POINT ( 'NONE', #219 ) ;
#97 = CONICAL_SURFACE ( 'NONE', #41, 6.299999999999999800, 0.3141592653620731100 ) ;
#98 = ORIENTED_EDGE ( 'NONE', *, *, #63, .F. ) ;
#99 = LINE ( 'NONE', #274, #123 ) ;
#100 = CIRCLE ( 'NONE', #35, 7.000000000000000000 ) ;
#101 = VECTOR ( 'NONE', #275, 1000.000000000000100 ) ;
#102 = CIRCLE ( 'NONE', #36, 6.000000000000000000 ) ;
#103 = ORIENTED_EDGE ( 'NONE', *, *, #17, .F. ) ;
#104 = CYLINDRICAL_SURFACE ( 'NONE', #46, 6.000000000000000000 ) ;
#105 = ORIENTED_EDGE ( 'NONE', *, *, #63, .T. ) ;
#106 = ORIENTED_EDGE ( 'NONE', *, *, #11, .F. ) ;
#107 = EDGE_LOOP ( 'NONE', ( #103, #111, #82, #128 ) ) ;
#108 = ORIENTED_EDGE ( 'NONE', *, *, #18, .F. ) ;
#109 = ORIENTED_EDGE ( 'NONE', *, *, #51, .F. ) ;
#110 = CLOSED_SHELL ( 'NONE', ( #8, #3, #10, #9, #2, #4, #6, #5, #7, #1 ) ) ;
#111 = ORIENTED_EDGE ( 'NONE', *, *, #60, .F. ) ;
#112 = VERTEX_POINT ( 'NONE', #210 ) ;
#113 = ORIENTED_EDGE ( 'NONE', *, *, #53, .F. ) ;
#114 = ORIENTED_EDGE ( 'NONE', *, *, #65, .F. ) ;
#115 = ORIENTED_EDGE ( 'NONE', *, *, #55, .F. ) ;
#116 = ORIENTED_EDGE ( 'NONE', *, *, #51, .T. ) ;
#117 = ORIENTED_EDGE ( 'NONE', *, *, #64, .F. ) ;
#118 = VERTEX_POINT ( 'NONE', #207 ) ;
#119 = ORIENTED_EDGE ( 'NONE', *, *, #62, .F. ) ;
#120 = ORIENTED_EDGE ( 'NONE', *, *, #55, .T. ) ;
#121 = ORIENTED_EDGE ( 'NONE', *, *, #32, .T. ) ;
#122 = CIRCLE ( 'NONE', #34, 7.000000000000000000 ) ;
#123 = VECTOR ( 'NONE', #249, 1000.000000000000200 ) ;
#124 = ORIENTED_EDGE ( 'NONE', *, *, #54, .F. ) ;
#125 = ORIENTED_EDGE ( 'NONE', *, *, #11, .T. ) ;
#126 = ORIENTED_EDGE ( 'NONE', *, *, #57, .F. ) ;
#127 = ORIENTED_EDGE ( 'NONE', *, *, #50, .F. ) ;
#128 = ORIENTED_EDGE ( 'NONE', *, *, #58, .F. ) ;
#129 = ORIENTED_EDGE ( 'NONE', *, *, #61, .F. ) ;
#130 = PRESENTATION_STYLE_ASSIGNMENT (( #198 ) ) ;
#131 = EDGE_LOOP ( 'NONE', ( #106, #119 ) ) ;
#132 = EDGE_LOOP ( 'NONE', ( #179, #184, #120, #105 ) ) ;
#133 = ORIENTED_EDGE ( 'NONE', *, *, #56, .T. ) ;
#134 = SURFACE_STYLE_FILL_AREA ( #200 ) ;
#135 = COLOUR_RGB ( '',0.7921568627450980000, 0.8196078431372548800, 0.9333333333333333500 ) ;
#136 = CIRCLE ( 'NONE', #28, 6.299999999999999800 ) ;
#137 = CIRCLE ( 'NONE', #29, 6.000000000000000000 ) ;
#138 = VECTOR ( 'NONE', #263, 1000.000000000000000 ) ;
#139 = CIRCLE ( 'NONE', #30, 6.000000000000000000 ) ;
#140 = LINE ( 'NONE', #258, #138 ) ;
#141 = VECTOR ( 'NONE', #269, 1000.000000000000200 ) ;
#142 = SHAPE_DEFINITION_REPRESENTATION ( #68, #73 ) ;
#143 = FACE_OUTER_BOUND ( 'NONE', #132, .T. ) ;
#144 = LINE ( 'NONE', #281, #101 ) ;
#145 = ORIENTED_EDGE ( 'NONE', *, *, #57, .T. ) ;
#146 = ORIENTED_EDGE ( 'NONE', *, *, #53, .T. ) ;
#147 = ORIENTED_EDGE ( 'NONE', *, *, #54, .T. ) ;
#148 = ORIENTED_EDGE ( 'NONE', *, *, #50, .T. ) ;
#149 = CONICAL_SURFACE ( 'NONE', #48, 6.299999999999999800, 0.3141592653620729500 ) ;
#150 = VECTOR ( 'NONE', #285, 1000.000000000000100 ) ;
#151 = FACE_OUTER_BOUND ( 'NONE', #83, .T. ) ;
#152 = CIRCLE ( 'NONE', #14, 6.299999999999997200 ) ;
#153 = VECTOR ( 'NONE', #244, 1000.000000000000000 ) ;
#154 = FACE_OUTER_BOUND ( 'NONE', #193, .T. ) ;
#155 = LINE ( 'NONE', #245, #153 ) ;
#156 = VERTEX_POINT ( 'NONE', #211 ) ;
#157 = EDGE_LOOP ( 'NONE', ( #98, #159 ) ) ;
#158 = ORIENTED_EDGE ( 'NONE', *, *, #58, .T. ) ;
#159 = ORIENTED_EDGE ( 'NONE', *, *, #49, .F. ) ;
#160 = ORIENTED_EDGE ( 'NONE', *, *, #49, .T. ) ;
#161 = FACE_BOUND ( 'NONE', #157, .T. ) ;
#162 = FACE_OUTER_BOUND ( 'NONE', #178, .T. ) ;
#163 = EDGE_LOOP ( 'NONE', ( #146, #76, #116, #114 ) ) ;
#164 = LINE ( 'NONE', #215, #173 ) ;
#165 = FACE_OUTER_BOUND ( 'NONE', #85, .T. ) ;
#166 = CYLINDRICAL_SURFACE ( 'NONE', #38, 7.000000000000000000 ) ;
#167 = CYLINDRICAL_SURFACE ( 'NONE', #39, 6.000000000000000000 ) ;
#168 = CONICAL_SURFACE ( 'NONE', #45, 6.299999999999999800, 0.3141592653620729500 ) ;
#169 = LINE ( 'NONE', #280, #150 ) ;
#170 = FACE_OUTER_BOUND ( 'NONE', #86, .T. ) ;
#171 = FACE_OUTER_BOUND ( 'NONE', #80, .T. ) ;
#172 = FACE_BOUND ( 'NONE', #131, .T. ) ;
#173 = VECTOR ( 'NONE', #239, 1000.000000000000000 ) ;
#174 = LINE ( 'NONE', #217, #181 ) ;
#175 = FACE_OUTER_BOUND ( 'NONE', #163, .T. ) ;
#176 = CONICAL_SURFACE ( 'NONE', #43, 6.299999999999999800, 0.3141592653620731100 ) ;
#177 = COLOUR_RGB ( '',0.7921568627450980000, 0.8196078431372548800, 0.9333333333333333500 ) ;
#178 = EDGE_LOOP ( 'NONE', ( #180, #147 ) ) ;
#179 = ORIENTED_EDGE ( 'NONE', *, *, #56, .F. ) ;
#180 = ORIENTED_EDGE ( 'NONE', *, *, #60, .T. ) ;
#181 = VECTOR ( 'NONE', #270, 1000.000000000000000 ) ;
#182 = CIRCLE ( 'NONE', #52, 7.000000000000000000 ) ;
#183 = LINE ( 'NONE', #268, #141 ) ;
#184 = ORIENTED_EDGE ( 'NONE', *, *, #62, .T. ) ;
#185 = SURFACE_STYLE_FILL_AREA ( #229 ) ;
#186 = ORIENTED_EDGE ( 'NONE', *, *, #59, .T. ) ;
#187 = FACE_OUTER_BOUND ( 'NONE', #79, .T. ) ;
#188 = ORIENTED_EDGE ( 'NONE', *, *, #64, .T. ) ;
#189 = CIRCLE ( 'NONE', #31, 7.000000000000000000 ) ;
#190 = CIRCLE ( 'NONE', #33, 6.299999999999997200 ) ;
#191 = ORIENTED_EDGE ( 'NONE', *, *, #59, .F. ) ;
#192 = CYLINDRICAL_SURFACE ( 'NONE', #47, 7.000000000000000000 ) ;
#193 = EDGE_LOOP ( 'NONE', ( #191, #117, #148, #126 ) ) ;
#194 = DIRECTION ( 'NONE',  ( 0.0000000000000000000, 0.0000000000000000000, 1.000000000000000000 ) ) ;
#195 =( NAMED_UNIT ( * ) SI_UNIT ( $, .STERADIAN. ) SOLID_ANGLE_UNIT ( ) );
#196 =( NAMED_UNIT ( * ) PLANE_ANGLE_UNIT ( ) SI_UNIT ( $, .RADIAN. ) );
#197 =( LENGTH_UNIT ( ) NAMED_UNIT ( * ) SI_UNIT ( .MILLI., .METRE. ) );
#198 = SURFACE_STYLE_USAGE ( .BOTH. , #199 ) ;
#199 = SURFACE_SIDE_STYLE ('',( #134 ) ) ;
#200 = FILL_AREA_STYLE ('',( #206 ) ) ;
#201 = APPLICATION_CONTEXT ( 'automotive_design' ) ;
#202 = APPLICATION_PROTOCOL_DEFINITION ( 'draft international standard', 'automotive_design', 1998, #201 ) ;
#203 =( NAMED_UNIT ( * ) SI_UNIT ( $, .STERADIAN. ) SOLID_ANGLE_UNIT ( ) );
#204 =( NAMED_UNIT ( * ) PLANE_ANGLE_UNIT ( ) SI_UNIT ( $, .RADIAN. ) );
#205 =( LENGTH_UNIT ( ) NAMED_UNIT ( * ) SI_UNIT ( .MILLI., .METRE. ) );
#206 = FILL_AREA_STYLE_COLOUR ( '', #135 ) ;
#207 = CARTESIAN_POINT ( 'NONE',  ( 8.572527594031473200E-016, 5.845621523999922100, 7.000000000000000000 ) ) ;
#208 = CARTESIAN_POINT ( 'NONE',  ( 0.0000000000000000000, 0.0000000000000000000, 0.0000000000000000000 ) ) ;
#209 = PRODUCT_CONTEXT ( 'NONE', #201, 'mechanical' ) ;
#210 = CARTESIAN_POINT ( 'NONE',  ( 7.347880794884119700E-016, 8.000000000000000000, -6.000000000000000000 ) ) ;
#211 = CARTESIAN_POINT ( 'NONE',  ( 0.0000000000000000000, 8.000000000000007100, -6.299999999999997200 ) ) ;
#212 = APPLICATION_PROTOCOL_DEFINITION ( 'draft international standard', 'automotive_design', 1998, #257 ) ;
#213 = CARTESIAN_POINT ( 'NONE',  ( 8.143901214329898800E-016, 0.0000000000000000000, -6.299999999999999800 ) ) ;
#214 = CARTESIAN_POINT ( 'NONE',  ( 0.0000000000000000000, 0.0000000000000000000, 6.000000000000000000 ) ) ;
#215 = CARTESIAN_POINT ( 'NONE',  ( 0.0000000000000000000, 0.0000000000000000000, 6.000000000000000000 ) ) ;
#216 = CARTESIAN_POINT ( 'NONE',  ( 7.347880794884119700E-016, 0.0000000000000000000, -6.000000000000000000 ) ) ;
#217 = CARTESIAN_POINT ( 'NONE',  ( 7.347880794884119700E-016, 0.0000000000000000000, -6.000000000000000000 ) ) ;
#218 = DIRECTION ( 'NONE',  ( 1.000000000000000000, 0.0000000000000000000, 0.0000000000000000000 ) ) ;
#219 = CARTESIAN_POINT ( 'NONE',  ( 8.143901214329897800E-016, 8.000000000000007100, 6.299999999999997200 ) ) ;
#220 = CARTESIAN_POINT ( 'NONE',  ( 0.0000000000000000000, 0.0000000000000000000, 6.299999999999999800 ) ) ;
#221 = CARTESIAN_POINT ( 'NONE',  ( 0.0000000000000000000, 5.845621524000000200, -7.000000000000000000 ) ) ;
#222 =( NAMED_UNIT ( * ) SI_UNIT ( $, .STERADIAN. ) SOLID_ANGLE_UNIT ( ) );
#223 = DIRECTION ( 'NONE',  ( 0.0000000000000000000, 1.115179377413661700E-014, -1.000000000000000000 ) ) ;
#224 = DIRECTION ( 'NONE',  ( 0.0000000000000000000, 0.0000000000000000000, 1.000000000000000000 ) ) ;
#225 =( NAMED_UNIT ( * ) PLANE_ANGLE_UNIT ( ) SI_UNIT ( $, .RADIAN. ) );
#226 =( LENGTH_UNIT ( ) NAMED_UNIT ( * ) SI_UNIT ( .MILLI., .METRE. ) );
#227 = SURFACE_STYLE_USAGE ( .BOTH. , #228 ) ;
#228 = SURFACE_SIDE_STYLE ('',( #185 ) ) ;
#229 = FILL_AREA_STYLE ('',( #240 ) ) ;
#230 = CARTESIAN_POINT ( 'NONE',  ( 0.0000000000000000000, 5.845621523999922100, 0.0000000000000000000 ) ) ;
#231 = CARTESIAN_POINT ( 'NONE',  ( 8.572527594031473200E-016, 2.154378476000085000, 7.000000000000000000 ) ) ;
#232 = CARTESIAN_POINT ( 'NONE',  ( 0.0000000000000000000, 8.000000000000000000, 6.000000000000000000 ) ) ;
#233 = DIRECTION ( 'NONE',  ( 0.0000000000000000000, 0.0000000000000000000, 1.000000000000000000 ) ) ;
#234 = CARTESIAN_POINT ( 'NONE',  ( 0.0000000000000000000, 2.154378476000085000, 0.0000000000000000000 ) ) ;
#235 = DIRECTION ( 'NONE',  ( 0.0000000000000000000, -1.000000000000000000, -0.0000000000000000000 ) ) ;
#236 = DIRECTION ( 'NONE',  ( 0.0000000000000000000, -1.000000000000000000, 0.0000000000000000000 ) ) ;
#237 = CARTESIAN_POINT ( 'NONE',  ( 0.0000000000000000000, 0.0000000000000000000, 0.0000000000000000000 ) ) ;
#238 = CARTESIAN_POINT ( 'NONE',  ( 0.0000000000000000000, 2.154378476000085000, -7.000000000000000000 ) ) ;
#239 = DIRECTION ( 'NONE',  ( -0.0000000000000000000, 1.000000000000000000, 0.0000000000000000000 ) ) ;
#240 = FILL_AREA_STYLE_COLOUR ( '', #177 ) ;
#241 = DIRECTION ( 'NONE',  ( 0.0000000000000000000, 0.0000000000000000000, 1.000000000000000000 ) ) ;
#242 = DIRECTION ( 'NONE',  ( -0.0000000000000000000, 1.000000000000000000, 0.0000000000000000000 ) ) ;
#243 = CARTESIAN_POINT ( 'NONE',  ( 0.0000000000000000000, 8.000000000000000000, 0.0000000000000000000 ) ) ;
#244 = DIRECTION ( 'NONE',  ( 0.0000000000000000000, -1.000000000000000000, 0.0000000000000000000 ) ) ;
#245 = CARTESIAN_POINT ( 'NONE',  ( 0.0000000000000000000, 5.845621524000000200, -7.000000000000000000 ) ) ;
#246 = DIRECTION ( 'NONE',  ( 0.0000000000000000000, -1.220501874169396400E-014, 1.000000000000000000 ) ) ;
#247 = DIRECTION ( 'NONE',  ( 0.0000000000000000000, 1.000000000000000000, 0.0000000000000000000 ) ) ;
#248 = DIRECTION ( 'NONE',  ( 0.0000000000000000000, 0.0000000000000000000, 1.000000000000000000 ) ) ;
#249 = DIRECTION ( 'NONE',  ( 0.0000000000000000000, 0.9510565162941975200, 0.3090169943778897100 ) ) ;
#250 = DIRECTION ( 'NONE',  ( 0.0000000000000000000, -1.000000000000000000, -0.0000000000000000000 ) ) ;
#251 = DIRECTION ( 'NONE',  ( 0.0000000000000000000, 0.0000000000000000000, 1.000000000000000000 ) ) ;
#252 = CARTESIAN_POINT ( 'NONE',  ( 0.0000000000000000000, 0.0000000000000000000, 0.0000000000000000000 ) ) ;
#253 = DIRECTION ( 'NONE',  ( 0.0000000000000000000, 0.0000000000000000000, -1.000000000000000000 ) ) ;
#254 = DIRECTION ( 'NONE',  ( -0.0000000000000000000, 1.000000000000000000, -0.0000000000000000000 ) ) ;
#255 = CARTESIAN_POINT ( 'NONE',  ( 0.0000000000000000000, 8.000000000000007100, 0.0000000000000000000 ) ) ;
#256 = DIRECTION ( 'NONE',  ( -0.0000000000000000000, 1.000000000000000000, 0.0000000000000000000 ) ) ;
#257 = APPLICATION_CONTEXT ( 'automotive_design' ) ;
#258 = CARTESIAN_POINT ( 'NONE',  ( 8.572527594031473200E-016, 5.845621524000000200, 7.000000000000000000 ) ) ;
#259 = DIRECTION ( 'NONE',  ( 0.0000000000000000000, 1.115179377413661700E-014, -1.000000000000000000 ) ) ;
#260 = DIRECTION ( 'NONE',  ( 0.0000000000000000000, 0.0000000000000000000, 1.000000000000000000 ) ) ;
#261 = DIRECTION ( 'NONE',  ( 0.0000000000000000000, -1.000000000000000000, 0.0000000000000000000 ) ) ;
#262 = CARTESIAN_POINT ( 'NONE',  ( 0.0000000000000000000, 5.845621523999922100, 0.0000000000000000000 ) ) ;
#263 = DIRECTION ( 'NONE',  ( 0.0000000000000000000, -1.000000000000000000, 0.0000000000000000000 ) ) ;
#264 = DIRECTION ( 'NONE',  ( 0.0000000000000000000, -1.220501874169396400E-014, 1.000000000000000000 ) ) ;
#265 = DIRECTION ( 'NONE',  ( 0.0000000000000000000, 1.000000000000000000, 0.0000000000000000000 ) ) ;
#266 = CARTESIAN_POINT ( 'NONE',  ( 0.0000000000000000000, 2.154378476000085000, 0.0000000000000000000 ) ) ;
#267 = CARTESIAN_POINT ( 'NONE',  ( 0.0000000000000000000, 8.000000000000000000, 0.0000000000000000000 ) ) ;
#268 = CARTESIAN_POINT ( 'NONE',  ( 7.715274834628325400E-016, 0.0000000000000000000, -6.299999999999999800 ) ) ;
#269 = DIRECTION ( 'NONE',  ( 3.784366730470183000E-017, 0.9510565162941975200, -0.3090169943778897100 ) ) ;
#270 = DIRECTION ( 'NONE',  ( -0.0000000000000000000, 1.000000000000000000, 0.0000000000000000000 ) ) ;
#271 = CARTESIAN_POINT ( 'NONE',  ( 0.0000000000000000000, 0.0000000000000000000, 0.0000000000000000000 ) ) ;
#272 = DIRECTION ( 'NONE',  ( -0.0000000000000000000, 1.000000000000000000, 0.0000000000000000000 ) ) ;
#273 = DIRECTION ( 'NONE',  ( 0.0000000000000000000, 0.0000000000000000000, -1.000000000000000000 ) ) ;
#274 = CARTESIAN_POINT ( 'NONE',  ( 0.0000000000000000000, 0.0000000000000000000, 6.299999999999999800 ) ) ;
#275 = DIRECTION ( 'NONE',  ( 0.0000000000000000000, -0.9510565162941975200, -0.3090169943778896000 ) ) ;
#276 = DIRECTION ( 'NONE',  ( 0.0000000000000000000, 0.0000000000000000000, 1.000000000000000000 ) ) ;
#277 = CARTESIAN_POINT ( 'NONE',  ( 0.0000000000000000000, 0.0000000000000000000, 0.0000000000000000000 ) ) ;
#278 = CARTESIAN_POINT ( 'NONE',  ( 0.0000000000000000000, 5.845621524000000200, 0.0000000000000000000 ) ) ;
#279 = DIRECTION ( 'NONE',  ( 0.0000000000000000000, -1.000000000000000000, -0.0000000000000000000 ) ) ;
#280 = CARTESIAN_POINT ( 'NONE',  ( 7.715274834628325400E-016, 8.000000000000000000, 6.299999999999999800 ) ) ;
#281 = CARTESIAN_POINT ( 'NONE',  ( 0.0000000000000000000, 8.000000000000000000, -6.299999999999999800 ) ) ;
#282 = DIRECTION ( 'NONE',  ( 0.0000000000000000000, 0.0000000000000000000, -1.000000000000000000 ) ) ;
#283 = CARTESIAN_POINT ( 'NONE',  ( 0.0000000000000000000, 0.0000000000000000000, 0.0000000000000000000 ) ) ;
#284 = DIRECTION ( 'NONE',  ( 0.0000000000000000000, -1.000000000000000000, 0.0000000000000000000 ) ) ;
#285 = DIRECTION ( 'NONE',  ( 3.784366730470181200E-017, -0.9510565162941975200, 0.3090169943778896000 ) ) ;
#286 = CARTESIAN_POINT ( 'NONE',  ( 0.0000000000000000000, 8.000000000000000000, 0.0000000000000000000 ) ) ;
#287 = DIRECTION ( 'NONE',  ( 0.0000000000000000000, -1.000000000000000000, 0.0000000000000000000 ) ) ;
#288 = DIRECTION ( 'NONE',  ( 0.0000000000000000000, 1.000000000000000000, 0.0000000000000000000 ) ) ;
#289 = CARTESIAN_POINT ( 'NONE',  ( -6.375600000000000400, 8.000000000000000000, -6.375600000000000400 ) ) ;
#290 = DIRECTION ( 'NONE',  ( 0.0000000000000000000, -1.000000000000000000, 0.0000000000000000000 ) ) ;
#291 = PLANE ( 'NONE',  #44 ) ;
#292 = DIRECTION ( 'NONE',  ( 0.0000000000000000000, 0.0000000000000000000, -1.000000000000000000 ) ) ;
#293 = DIRECTION ( 'NONE',  ( 0.0000000000000000000, 0.0000000000000000000, 1.000000000000000000 ) ) ;
#294 = CARTESIAN_POINT ( 'NONE',  ( 0.0000000000000000000, 8.000000000000000000, 0.0000000000000000000 ) ) ;
#295 = DIRECTION ( 'NONE',  ( -0.0000000000000000000, 1.000000000000000000, 0.0000000000000000000 ) ) ;
#296 = DIRECTION ( 'NONE',  ( 0.0000000000000000000, -1.000000000000000000, 0.0000000000000000000 ) ) ;
#297 = CARTESIAN_POINT ( 'NONE',  ( -6.375600000000000400, 0.0000000000000000000, 6.375600000000000400 ) ) ;
#298 = DIRECTION ( 'NONE',  ( -0.0000000000000000000, 1.000000000000000000, 0.0000000000000000000 ) ) ;
#299 = PLANE ( 'NONE',  #42 ) ;
#300 = DIRECTION ( 'NONE',  ( -0.0000000000000000000, 1.000000000000000000, 0.0000000000000000000 ) ) ;
#301 = DIRECTION ( 'NONE',  ( 0.0000000000000000000, 0.0000000000000000000, 1.000000000000000000 ) ) ;
#302 = CARTESIAN_POINT ( 'NONE',  ( 0.0000000000000000000, 0.0000000000000000000, 0.0000000000000000000 ) ) ;
#303 = DIRECTION ( 'NONE',  ( 0.0000000000000000000, 0.0000000000000000000, -1.000000000000000000 ) ) ;
#304 = CARTESIAN_POINT ( 'NONE',  ( 0.0000000000000000000, 0.0000000000000000000, 0.0000000000000000000 ) ) ;
#305 = DIRECTION ( 'NONE',  ( 0.0000000000000000000, 0.0000000000000000000, 1.000000000000000000 ) ) ;
#306 = DIRECTION ( 'NONE',  ( 0.0000000000000000000, -1.000000000000000000, 0.0000000000000000000 ) ) ;
#307 = CARTESIAN_POINT ( 'NONE',  ( 0.0000000000000000000, 5.845621524000000200, 0.0000000000000000000 ) ) ;
#308 = DIRECTION ( 'NONE',  ( 0.0000000000000000000, 0.0000000000000000000, -1.000000000000000000 ) ) ;
#309 = DIRECTION ( 'NONE',  ( 0.0000000000000000000, 0.0000000000000000000, -1.000000000000000000 ) ) ;
#310 = CARTESIAN_POINT ( 'NONE',  ( 0.0000000000000000000, 8.000000000000007100, 0.0000000000000000000 ) ) ;
#311 = CARTESIAN_POINT ( 'NONE',  ( 0.0000000000000000000, 0.0000000000000000000, 0.0000000000000000000 ) ) ;
#312 = DIRECTION ( 'NONE',  ( 0.0000000000000000000, 0.0000000000000000000, 1.000000000000000000 ) ) ;
#313 = DIRECTION ( 'NONE',  ( -0.0000000000000000000, 1.000000000000000000, -0.0000000000000000000 ) ) ;
#314 = DIRECTION ( 'NONE',  ( 0.0000000000000000000, -1.000000000000000000, -0.0000000000000000000 ) ) ;
ENDSEC;
END-ISO-10303-21;
