ISO-10303-21;
HEADER;
FILE_DESCRIPTION (( 'STEP AP214' ),
    '1' );
FILE_NAME ('107600002Y300A.STEP',
    '2013-02-25T17:25:30',
    ( '' ),
    ( '' ),
    'SwSTEP 2.0',
    'SolidWorks 2012',
    '' );
FILE_SCHEMA (( 'AUTOMOTIVE_DESIGN' ));
ENDSEC;

DATA;
#1 = ADVANCED_FACE ( 'NONE', ( #257 ), #261, .F. ) ;
#2 = ADVANCED_FACE ( 'NONE', ( #258, #262 ), #168, .T. ) ;
#3 = ADVANCED_FACE ( 'NONE', ( #212, #264 ), #109, .T. ) ;
#4 = ADVANCED_FACE ( 'NONE', ( #263 ), #267, .F. ) ;
#5 = ADVANCED_FACE ( 'NONE', ( #260 ), #271, .T. ) ;
#6 = ADVANCED_FACE ( 'NONE', ( #266 ), #275, .T. ) ;
#7 = ADVANCED_FACE ( 'NONE', ( #270 ), #273, .T. ) ;
#8 = ADVANCED_FACE ( 'NONE', ( #276 ), #281, .T. ) ;
#9 = ADVANCED_FACE ( 'NONE', ( #274 ), #269, .T. ) ;
#10 = ADVANCED_FACE ( 'NONE', ( #272 ), #279, .T. ) ;
#11 = EDGE_CURVE ( 'NONE', #203, #213, #280, .T. ) ;
#12 = EDGE_CURVE ( 'NONE', #213, #236, #268, .T. ) ;
#13 = EDGE_CURVE ( 'NONE', #210, #235, #265, .T. ) ;
#14 = PRODUCT_DEFINITION ( 'NON CONOSCIUTO', '', #54, #189 ) ;
#15 = PRODUCT_RELATED_PRODUCT_CATEGORY ( 'part', '', ( #66 ) ) ;
#16 = EDGE_CURVE ( 'NONE', #216, #310, #259, .T. ) ;
#17 = AXIS2_PLACEMENT_3D ( 'NONE', #163, #85, #185 ) ;
#18 = AXIS2_PLACEMENT_3D ( 'NONE', #112, #130, #121 ) ;
#19 = AXIS2_PLACEMENT_3D ( 'NONE', #99, #95, #94 ) ;
#20 = AXIS2_PLACEMENT_3D ( 'NONE', #186, #184, #68 ) ;
#21 = AXIS2_PLACEMENT_3D ( 'NONE', #183, #182, #93 ) ;
#22 = AXIS2_PLACEMENT_3D ( 'NONE', #176, #187, #180 ) ;
#23 = AXIS2_PLACEMENT_3D ( 'NONE', #97, #100, #96 ) ;
#24 = AXIS2_PLACEMENT_3D ( 'NONE', #177, #181, #178 ) ;
#25 = EDGE_CURVE ( 'NONE', #207, #209, #277, .T. ) ;
#26 = AXIS2_PLACEMENT_3D ( 'NONE', #169, #154, #166 ) ;
#27 =( GEOMETRIC_REPRESENTATION_CONTEXT ( 3 ) GLOBAL_UNCERTAINTY_ASSIGNED_CONTEXT ( ( #191 ) ) GLOBAL_UNIT_ASSIGNED_CONTEXT ( ( #128, #167, #129 ) ) REPRESENTATION_CONTEXT ( 'NONE', 'WORKASPACE' ) );
#28 = STYLED_ITEM ( 'NONE', ( #224 ), #193 ) ;
#29 = EDGE_CURVE ( 'NONE', #210, #206, #286, .T. ) ;
#30 = EDGE_CURVE ( 'NONE', #216, #207, #285, .T. ) ;
#31 = EDGE_CURVE ( 'NONE', #235, #211, #284, .T. ) ;
#32 = EDGE_CURVE ( 'NONE', #207, #234, #290, .T. ) ;
#33 = PRESENTATION_LAYER_ASSIGNMENT (  '', '', ( #28 ) ) ;
#34 = EDGE_CURVE ( 'NONE', #209, #236, #282, .T. ) ;
#35 = AXIS2_PLACEMENT_3D ( 'NONE', #150, #151, #134 ) ;
#36 = EDGE_CURVE ( 'NONE', #213, #203, #292, .T. ) ;
#37 =( GEOMETRIC_REPRESENTATION_CONTEXT ( 3 ) GLOBAL_UNCERTAINTY_ASSIGNED_CONTEXT ( ( #190 ) ) GLOBAL_UNIT_ASSIGNED_CONTEXT ( ( #145, #76, #69 ) ) REPRESENTATION_CONTEXT ( 'NONE', 'WORKASPACE' ) );
#38 = EDGE_CURVE ( 'NONE', #310, #209, #307, .T. ) ;
#39 = MECHANICAL_DESIGN_GEOMETRIC_PRESENTATION_REPRESENTATION (  '', ( #28 ), #37 ) ;
#40 = EDGE_CURVE ( 'NONE', #211, #206, #288, .T. ) ;
#41 = EDGE_CURVE ( 'NONE', #236, #234, #299, .T. ) ;
#42 = EDGE_CURVE ( 'NONE', #310, #216, #300, .T. ) ;
#43 = EDGE_CURVE ( 'NONE', #235, #210, #301, .T. ) ;
#44 = AXIS2_PLACEMENT_3D ( 'NONE', #114, #118, #126 ) ;
#45 = AXIS2_PLACEMENT_3D ( 'NONE', #160, #164, #161 ) ;
#46 = AXIS2_PLACEMENT_3D ( 'NONE', #86, #135, #137 ) ;
#47 = AXIS2_PLACEMENT_3D ( 'NONE', #139, #156, #152 ) ;
#48 = AXIS2_PLACEMENT_3D ( 'NONE', #159, #155, #111 ) ;
#49 = AXIS2_PLACEMENT_3D ( 'NONE', #162, #132, #157 ) ;
#50 = AXIS2_PLACEMENT_3D ( 'NONE', #84, #87, #88 ) ;
#51 = AXIS2_PLACEMENT_3D ( 'NONE', #72, #82, #83 ) ;
#52 = AXIS2_PLACEMENT_3D ( 'NONE', #98, #102, #103 ) ;
#53 = EDGE_CURVE ( 'NONE', #209, #207, #302, .T. ) ;
#54 = PRODUCT_DEFINITION_FORMATION_WITH_SPECIFIED_SOURCE ( 'TUTTO', '', #66, .NOT_KNOWN. ) ;
#55 = AXIS2_PLACEMENT_3D ( 'NONE', #89, #90, #91 ) ;
#56 = AXIS2_PLACEMENT_3D ( 'NONE', #117, #74, #140 ) ;
#57 = EDGE_CURVE ( 'NONE', #206, #211, #303, .T. ) ;
#58 =( GEOMETRIC_REPRESENTATION_CONTEXT ( 3 ) GLOBAL_UNCERTAINTY_ASSIGNED_CONTEXT ( ( #192 ) ) GLOBAL_UNIT_ASSIGNED_CONTEXT ( ( #77, #113, #81 ) ) REPRESENTATION_CONTEXT ( 'NONE', 'WORKASPACE' ) );
#59 = AXIS2_PLACEMENT_3D ( 'NONE', #79, #92, #175 ) ;
#60 = STYLED_ITEM ( 'NONE', ( #295 ), #194 ) ;
#61 = MECHANICAL_DESIGN_GEOMETRIC_PRESENTATION_REPRESENTATION (  '', ( #60 ), #58 ) ;
#62 = EDGE_CURVE ( 'NONE', #234, #236, #296, .T. ) ;
#63 = EDGE_CURVE ( 'NONE', #203, #234, #297, .T. ) ;
#64 = PRESENTATION_LAYER_ASSIGNMENT (  '', '', ( #60 ) ) ;
#65 = AXIS2_PLACEMENT_3D ( 'NONE', #106, #107, #108 ) ;
#66 = PRODUCT ( '107600002Y300A', '107600002Y300A', '', ( #171 ) ) ;
#67 = APPLICATION_PROTOCOL_DEFINITION ( 'draft international standard', 'automotive_design', 1998, #158 ) ;
#68 = DIRECTION ( 'NONE',  ( 0.0000000000000000000, 0.0000000000000000000, 1.000000000000000000 ) ) ;
#69 =( NAMED_UNIT ( * ) SI_UNIT ( $, .STERADIAN. ) SOLID_ANGLE_UNIT ( ) );
#70 = CARTESIAN_POINT ( 'NONE',  ( 8.939921633775678800E-016, 0.0000000000000000000, -7.299999999999999800 ) ) ;
#71 = APPLICATION_PROTOCOL_DEFINITION ( 'draft international standard', 'automotive_design', 1998, #170 ) ;
#72 = CARTESIAN_POINT ( 'NONE',  ( 0.0000000000000000000, 2.154378476000085000, 0.0000000000000000000 ) ) ;
#73 = SURFACE_SIDE_STYLE ('',( #294 ) ) ;
#74 = DIRECTION ( 'NONE',  ( 0.0000000000000000000, 1.000000000000000000, 0.0000000000000000000 ) ) ;
#75 = CARTESIAN_POINT ( 'NONE',  ( 8.572527594031473200E-016, 8.500000000000000000, -7.000000000000000000 ) ) ;
#76 =( NAMED_UNIT ( * ) PLANE_ANGLE_UNIT ( ) SI_UNIT ( $, .RADIAN. ) );
#77 =( LENGTH_UNIT ( ) NAMED_UNIT ( * ) SI_UNIT ( .MILLI., .METRE. ) );
#78 = SURFACE_STYLE_USAGE ( .BOTH. , #73 ) ;
#79 = CARTESIAN_POINT ( 'NONE',  ( 0.0000000000000000000, 0.0000000000000000000, 0.0000000000000000000 ) ) ;
#80 = CARTESIAN_POINT ( 'NONE',  ( 9.368548013477260100E-016, 8.499999999999952000, 7.300000000000015800 ) ) ;
#81 =( NAMED_UNIT ( * ) SI_UNIT ( $, .STERADIAN. ) SOLID_ANGLE_UNIT ( ) );
#82 = DIRECTION ( 'NONE',  ( 0.0000000000000000000, 1.000000000000000000, 0.0000000000000000000 ) ) ;
#83 = DIRECTION ( 'NONE',  ( 0.0000000000000000000, -1.067939139898221900E-014, 1.000000000000000000 ) ) ;
#84 = CARTESIAN_POINT ( 'NONE',  ( 0.0000000000000000000, 8.499999999999952000, 0.0000000000000000000 ) ) ;
#85 = DIRECTION ( 'NONE',  ( 0.0000000000000000000, -1.000000000000000000, -0.0000000000000000000 ) ) ;
#86 = CARTESIAN_POINT ( 'NONE',  ( 0.0000000000000000000, 6.345621524000089100, 0.0000000000000000000 ) ) ;
#87 = DIRECTION ( 'NONE',  ( -0.0000000000000000000, 1.000000000000000000, -0.0000000000000000000 ) ) ;
#88 = DIRECTION ( 'NONE',  ( 0.0000000000000000000, 0.0000000000000000000, -1.000000000000000000 ) ) ;
#89 = CARTESIAN_POINT ( 'NONE',  ( 0.0000000000000000000, 0.0000000000000000000, 0.0000000000000000000 ) ) ;
#90 = DIRECTION ( 'NONE',  ( -0.0000000000000000000, -1.000000000000000000, -0.0000000000000000000 ) ) ;
#91 = DIRECTION ( 'NONE',  ( 0.0000000000000000000, 0.0000000000000000000, 1.000000000000000000 ) ) ;
#92 = DIRECTION ( 'NONE',  ( 0.0000000000000000000, 0.0000000000000000000, 1.000000000000000000 ) ) ;
#93 = DIRECTION ( 'NONE',  ( 0.0000000000000000000, 0.0000000000000000000, 1.000000000000000000 ) ) ;
#94 = DIRECTION ( 'NONE',  ( 0.0000000000000000000, 0.0000000000000000000, -1.000000000000000000 ) ) ;
#95 = DIRECTION ( 'NONE',  ( 0.0000000000000000000, -1.000000000000000000, 0.0000000000000000000 ) ) ;
#96 = DIRECTION ( 'NONE',  ( 0.0000000000000000000, 0.0000000000000000000, 1.000000000000000000 ) ) ;
#97 = CARTESIAN_POINT ( 'NONE',  ( 0.0000000000000000000, 0.0000000000000000000, 0.0000000000000000000 ) ) ;
#98 = CARTESIAN_POINT ( 'NONE',  ( 0.0000000000000000000, 6.345621524000089100, 0.0000000000000000000 ) ) ;
#99 = CARTESIAN_POINT ( 'NONE',  ( 0.0000000000000000000, 8.500000000000000000, 0.0000000000000000000 ) ) ;
#100 = DIRECTION ( 'NONE',  ( -0.0000000000000000000, 1.000000000000000000, 0.0000000000000000000 ) ) ;
#101 = CARTESIAN_POINT ( 'NONE',  ( 0.0000000000000000000, 0.0000000000000000000, 7.299999999999999800 ) ) ;
#102 = DIRECTION ( 'NONE',  ( 0.0000000000000000000, -1.000000000000000000, 0.0000000000000000000 ) ) ;
#103 = DIRECTION ( 'NONE',  ( 0.0000000000000000000, -1.105886215935214500E-014, -1.000000000000000000 ) ) ;
#104 = CARTESIAN_POINT ( 'NONE',  ( 0.0000000000000000000, 8.499999999999952000, -7.300000000000015800 ) ) ;
#105 = DIRECTION ( 'NONE',  ( 0.0000000000000000000, 0.9510565162941975200, 0.3090169943778897100 ) ) ;
#106 = CARTESIAN_POINT ( 'NONE',  ( 0.0000000000000000000, 8.500000000000000000, 0.0000000000000000000 ) ) ;
#107 = DIRECTION ( 'NONE',  ( 0.0000000000000000000, 1.000000000000000000, 0.0000000000000000000 ) ) ;
#108 = DIRECTION ( 'NONE',  ( 0.0000000000000000000, 0.0000000000000000000, 1.000000000000000000 ) ) ;
#109 = PLANE ( 'NONE',  #21 ) ;
#110 = CARTESIAN_POINT ( 'NONE',  ( 0.0000000000000000000, 0.0000000000000000000, 7.299999999999999800 ) ) ;
#111 = DIRECTION ( 'NONE',  ( 0.0000000000000000000, 0.0000000000000000000, 1.000000000000000000 ) ) ;
#112 = CARTESIAN_POINT ( 'NONE',  ( 0.0000000000000000000, 0.0000000000000000000, 0.0000000000000000000 ) ) ;
#113 =( NAMED_UNIT ( * ) PLANE_ANGLE_UNIT ( ) SI_UNIT ( $, .RADIAN. ) );
#114 = CARTESIAN_POINT ( 'NONE',  ( 0.0000000000000000000, 6.345621524000000200, 0.0000000000000000000 ) ) ;
#115 = CARTESIAN_POINT ( 'NONE',  ( 8.572527594031473200E-016, 0.0000000000000000000, -7.000000000000000000 ) ) ;
#116 = FILL_AREA_STYLE_COLOUR ( '', #309 ) ;
#117 = CARTESIAN_POINT ( 'NONE',  ( 0.0000000000000000000, 2.154378476000085000, 0.0000000000000000000 ) ) ;
#118 = DIRECTION ( 'NONE',  ( -0.0000000000000000000, -1.000000000000000000, -5.421010862427522200E-017 ) ) ;
#119 = CARTESIAN_POINT ( 'NONE',  ( 0.0000000000000000000, 6.345621524000000200, -8.000000000000000000 ) ) ;
#120 = DIRECTION ( 'NONE',  ( 3.784366730470183000E-017, 0.9510565162941975200, -0.3090169943778897100 ) ) ;
#121 = DIRECTION ( 'NONE',  ( 0.0000000000000000000, 0.0000000000000000000, 1.000000000000000000 ) ) ;
#122 = CARTESIAN_POINT ( 'NONE',  ( 0.0000000000000000000, 8.500000000000000000, 7.000000000000000000 ) ) ;
#123 = FILL_AREA_STYLE ('',( #116 ) ) ;
#124 = CARTESIAN_POINT ( 'NONE',  ( 9.368548013477252200E-016, 0.0000000000000000000, -7.299999999999999800 ) ) ;
#125 = CARTESIAN_POINT ( 'NONE',  ( 9.797174393178825700E-016, 6.345621524000089100, 8.000000000000000000 ) ) ;
#126 = DIRECTION ( 'NONE',  ( 0.0000000000000000000, 0.0000000000000000000, -1.000000000000000000 ) ) ;
#127 = SURFACE_STYLE_USAGE ( .BOTH. , #174 ) ;
#128 =( LENGTH_UNIT ( ) NAMED_UNIT ( * ) SI_UNIT ( .MILLI., .METRE. ) );
#129 =( NAMED_UNIT ( * ) SI_UNIT ( $, .STERADIAN. ) SOLID_ANGLE_UNIT ( ) );
#130 = DIRECTION ( 'NONE',  ( -0.0000000000000000000, 1.000000000000000000, 0.0000000000000000000 ) ) ;
#131 = CARTESIAN_POINT ( 'NONE',  ( 0.0000000000000000000, 0.0000000000000000000, 7.000000000000000000 ) ) ;
#132 = DIRECTION ( 'NONE',  ( -0.0000000000000000000, 1.000000000000000000, -0.0000000000000000000 ) ) ;
#133 = FILL_AREA_STYLE_COLOUR ( '', #226 ) ;
#134 = DIRECTION ( 'NONE',  ( 0.0000000000000000000, 0.0000000000000000000, 1.000000000000000000 ) ) ;
#135 = DIRECTION ( 'NONE',  ( 0.0000000000000000000, -1.000000000000000000, 0.0000000000000000000 ) ) ;
#136 = DIRECTION ( 'NONE',  ( -0.0000000000000000000, -1.000000000000000000, -5.421010862427522200E-017 ) ) ;
#137 = DIRECTION ( 'NONE',  ( 0.0000000000000000000, -1.105886215935214500E-014, -1.000000000000000000 ) ) ;
#138 = CARTESIAN_POINT ( 'NONE',  ( 9.797174393178825700E-016, 2.154378476000085000, 8.000000000000000000 ) ) ;
#139 = CARTESIAN_POINT ( 'NONE',  ( 0.0000000000000000000, 0.0000000000000000000, 0.0000000000000000000 ) ) ;
#140 = DIRECTION ( 'NONE',  ( 0.0000000000000000000, -1.067939139898221900E-014, 1.000000000000000000 ) ) ;
#141 = CARTESIAN_POINT ( 'NONE',  ( 0.0000000000000000000, 6.345621524000000200, -8.000000000000000000 ) ) ;
#142 = DIRECTION ( 'NONE',  ( 3.784366730470181200E-017, -0.9510565162941975200, 0.3090169943778896000 ) ) ;
#143 = DIRECTION ( 'NONE',  ( 0.0000000000000000000, -0.9510565162941975200, -0.3090169943778896000 ) ) ;
#144 = DIRECTION ( 'NONE',  ( 0.0000000000000000000, 1.000000000000000000, 0.0000000000000000000 ) ) ;
#145 =( LENGTH_UNIT ( ) NAMED_UNIT ( * ) SI_UNIT ( .MILLI., .METRE. ) );
#146 = FILL_AREA_STYLE ('',( #133 ) ) ;
#147 = CARTESIAN_POINT ( 'NONE',  ( 9.797174393178825700E-016, 6.345621524000000200, 8.000000000000000000 ) ) ;
#148 = CARTESIAN_POINT ( 'NONE',  ( 0.0000000000000000000, 8.500000000000000000, -7.299999999999999800 ) ) ;
#149 = DIRECTION ( 'NONE',  ( -0.0000000000000000000, -1.000000000000000000, -5.421010862427522200E-017 ) ) ;
#150 = CARTESIAN_POINT ( 'NONE',  ( 0.0000000000000000000, 0.0000000000000000000, 0.0000000000000000000 ) ) ;
#151 = DIRECTION ( 'NONE',  ( -0.0000000000000000000, -1.000000000000000000, -0.0000000000000000000 ) ) ;
#152 = DIRECTION ( 'NONE',  ( 0.0000000000000000000, 0.0000000000000000000, 1.000000000000000000 ) ) ;
#153 = CARTESIAN_POINT ( 'NONE',  ( 8.939921633775678800E-016, 8.500000000000000000, 7.299999999999999800 ) ) ;
#154 = DIRECTION ( 'NONE',  ( 0.0000000000000000000, -1.000000000000000000, 0.0000000000000000000 ) ) ;
#155 = DIRECTION ( 'NONE',  ( 0.0000000000000000000, 1.000000000000000000, 0.0000000000000000000 ) ) ;
#156 = DIRECTION ( 'NONE',  ( 0.0000000000000000000, -1.000000000000000000, -0.0000000000000000000 ) ) ;
#157 = DIRECTION ( 'NONE',  ( 0.0000000000000000000, 0.0000000000000000000, -1.000000000000000000 ) ) ;
#158 = APPLICATION_CONTEXT ( 'automotive_design' ) ;
#159 = CARTESIAN_POINT ( 'NONE',  ( 0.0000000000000000000, 8.500000000000000000, 0.0000000000000000000 ) ) ;
#160 = CARTESIAN_POINT ( 'NONE',  ( 0.0000000000000000000, 6.345621524000000200, 0.0000000000000000000 ) ) ;
#161 = DIRECTION ( 'NONE',  ( 0.0000000000000000000, 0.0000000000000000000, -1.000000000000000000 ) ) ;
#162 = CARTESIAN_POINT ( 'NONE',  ( 0.0000000000000000000, 8.499999999999952000, 0.0000000000000000000 ) ) ;
#163 = CARTESIAN_POINT ( 'NONE',  ( 0.0000000000000000000, 0.0000000000000000000, 0.0000000000000000000 ) ) ;
#164 = DIRECTION ( 'NONE',  ( -0.0000000000000000000, -1.000000000000000000, -5.421010862427522200E-017 ) ) ;
#165 = CARTESIAN_POINT ( 'NONE',  ( 0.0000000000000000000, 0.0000000000000000000, 7.000000000000000000 ) ) ;
#166 = DIRECTION ( 'NONE',  ( 0.0000000000000000000, 0.0000000000000000000, -1.000000000000000000 ) ) ;
#167 =( NAMED_UNIT ( * ) PLANE_ANGLE_UNIT ( ) SI_UNIT ( $, .RADIAN. ) );
#168 = PLANE ( 'NONE',  #22 ) ;
#169 = CARTESIAN_POINT ( 'NONE',  ( 0.0000000000000000000, 8.500000000000000000, 0.0000000000000000000 ) ) ;
#170 = APPLICATION_CONTEXT ( 'automotive_design' ) ;
#171 = PRODUCT_CONTEXT ( 'NONE', #170, 'mechanical' ) ;
#172 = CARTESIAN_POINT ( 'NONE',  ( 0.0000000000000000000, 2.154378476000085000, -8.000000000000000000 ) ) ;
#173 = CARTESIAN_POINT ( 'NONE',  ( 8.572527594031473200E-016, 0.0000000000000000000, -7.000000000000000000 ) ) ;
#174 = SURFACE_SIDE_STYLE ('',( #225 ) ) ;
#175 = DIRECTION ( 'NONE',  ( 1.000000000000000000, 0.0000000000000000000, 0.0000000000000000000 ) ) ;
#176 = CARTESIAN_POINT ( 'NONE',  ( -7.387599999999999900, 0.0000000000000000000, 7.387599999999999900 ) ) ;
#177 = CARTESIAN_POINT ( 'NONE',  ( 0.0000000000000000000, 0.0000000000000000000, 0.0000000000000000000 ) ) ;
#178 = DIRECTION ( 'NONE',  ( 0.0000000000000000000, 0.0000000000000000000, 1.000000000000000000 ) ) ;
#179 = DIRECTION ( 'NONE',  ( 0.0000000000000000000, 1.000000000000000000, 0.0000000000000000000 ) ) ;
#180 = DIRECTION ( 'NONE',  ( 0.0000000000000000000, 0.0000000000000000000, -1.000000000000000000 ) ) ;
#181 = DIRECTION ( 'NONE',  ( 0.0000000000000000000, 1.000000000000000000, 0.0000000000000000000 ) ) ;
#182 = DIRECTION ( 'NONE',  ( 0.0000000000000000000, 1.000000000000000000, 0.0000000000000000000 ) ) ;
#183 = CARTESIAN_POINT ( 'NONE',  ( -7.387599999999999900, 8.500000000000000000, -7.387599999999999900 ) ) ;
#184 = DIRECTION ( 'NONE',  ( 0.0000000000000000000, 1.000000000000000000, 0.0000000000000000000 ) ) ;
#185 = DIRECTION ( 'NONE',  ( 0.0000000000000000000, 0.0000000000000000000, 1.000000000000000000 ) ) ;
#186 = CARTESIAN_POINT ( 'NONE',  ( 0.0000000000000000000, 0.0000000000000000000, 0.0000000000000000000 ) ) ;
#187 = DIRECTION ( 'NONE',  ( 0.0000000000000000000, -1.000000000000000000, 0.0000000000000000000 ) ) ;
#188 = PRODUCT_DEFINITION_SHAPE ( 'NONE', 'NONE',  #14 ) ;
#189 = PRODUCT_DEFINITION_CONTEXT ( 'detailed design', #158, 'design' ) ;
#190 = UNCERTAINTY_MEASURE_WITH_UNIT (LENGTH_MEASURE( 1.000000000000000100E-005 ), #145, 'distance_accuracy_value', 'NONE');
#191 = UNCERTAINTY_MEASURE_WITH_UNIT (LENGTH_MEASURE( 1.000000000000000100E-005 ), #128, 'distance_accuracy_value', 'NONE');
#192 = UNCERTAINTY_MEASURE_WITH_UNIT (LENGTH_MEASURE( 1.000000000000000100E-005 ), #77, 'distance_accuracy_value', 'NONE');
#193 = ADVANCED_BREP_SHAPE_REPRESENTATION ( '107600002Y300A', ( #194, #59 ), #27 ) ;
#194 = MANIFOLD_SOLID_BREP ( 'Importato1', #223 ) ;
#195 = ORIENTED_EDGE ( 'NONE', *, *, #42, .F. ) ;
#196 = ORIENTED_EDGE ( 'NONE', *, *, #36, .F. ) ;
#197 = ORIENTED_EDGE ( 'NONE', *, *, #13, .T. ) ;
#198 = ORIENTED_EDGE ( 'NONE', *, *, #53, .F. ) ;
#199 = ORIENTED_EDGE ( 'NONE', *, *, #29, .F. ) ;
#200 = ORIENTED_EDGE ( 'NONE', *, *, #30, .T. ) ;
#201 = ORIENTED_EDGE ( 'NONE', *, *, #40, .F. ) ;
#202 = ORIENTED_EDGE ( 'NONE', *, *, #31, .F. ) ;
#203 = VERTEX_POINT ( 'NONE', #110 ) ;
#204 = ORIENTED_EDGE ( 'NONE', *, *, #25, .F. ) ;
#205 = ORIENTED_EDGE ( 'NONE', *, *, #42, .T. ) ;
#206 = VERTEX_POINT ( 'NONE', #122 ) ;
#207 = VERTEX_POINT ( 'NONE', #125 ) ;
#208 = ORIENTED_EDGE ( 'NONE', *, *, #41, .F. ) ;
#209 = VERTEX_POINT ( 'NONE', #119 ) ;
#210 = VERTEX_POINT ( 'NONE', #131 ) ;
#211 = VERTEX_POINT ( 'NONE', #75 ) ;
#212 = FACE_BOUND ( 'NONE', #253, .T. ) ;
#213 = VERTEX_POINT ( 'NONE', #124 ) ;
#214 = EDGE_LOOP ( 'NONE', ( #305, #237, #245, #248 ) ) ;
#215 = ORIENTED_EDGE ( 'NONE', *, *, #63, .T. ) ;
#216 = VERTEX_POINT ( 'NONE', #80 ) ;
#217 = ORIENTED_EDGE ( 'NONE', *, *, #11, .T. ) ;
#218 = ORIENTED_EDGE ( 'NONE', *, *, #12, .T. ) ;
#219 = ORIENTED_EDGE ( 'NONE', *, *, #29, .T. ) ;
#220 = ORIENTED_EDGE ( 'NONE', *, *, #63, .F. ) ;
#221 = ORIENTED_EDGE ( 'NONE', *, *, #36, .T. ) ;
#222 = SHAPE_DEFINITION_REPRESENTATION ( #188, #193 ) ;
#223 = CLOSED_SHELL ( 'NONE', ( #1, #8, #6, #10, #4, #3, #2, #5, #7, #9 ) ) ;
#224 = PRESENTATION_STYLE_ASSIGNMENT (( #127 ) ) ;
#225 = SURFACE_STYLE_FILL_AREA ( #146 ) ;
#226 = COLOUR_RGB ( '',1.000000000000000000, 1.000000000000000000, 1.000000000000000000 ) ;
#227 = ORIENTED_EDGE ( 'NONE', *, *, #16, .F. ) ;
#228 = ORIENTED_EDGE ( 'NONE', *, *, #13, .F. ) ;
#229 = ORIENTED_EDGE ( 'NONE', *, *, #62, .F. ) ;
#230 = ORIENTED_EDGE ( 'NONE', *, *, #30, .F. ) ;
#231 = EDGE_LOOP ( 'NONE', ( #228, #308 ) ) ;
#232 = EDGE_LOOP ( 'NONE', ( #227, #200, #198, #238 ) ) ;
#233 = EDGE_LOOP ( 'NONE', ( #243, #306, #241, #312 ) ) ;
#234 = VERTEX_POINT ( 'NONE', #138 ) ;
#235 = VERTEX_POINT ( 'NONE', #115 ) ;
#236 = VERTEX_POINT ( 'NONE', #172 ) ;
#237 = ORIENTED_EDGE ( 'NONE', *, *, #32, .T. ) ;
#238 = ORIENTED_EDGE ( 'NONE', *, *, #38, .F. ) ;
#239 = ORIENTED_EDGE ( 'NONE', *, *, #16, .T. ) ;
#240 = ORIENTED_EDGE ( 'NONE', *, *, #11, .F. ) ;
#241 = ORIENTED_EDGE ( 'NONE', *, *, #34, .T. ) ;
#242 = ORIENTED_EDGE ( 'NONE', *, *, #12, .F. ) ;
#243 = ORIENTED_EDGE ( 'NONE', *, *, #32, .F. ) ;
#244 = ORIENTED_EDGE ( 'NONE', *, *, #57, .T. ) ;
#245 = ORIENTED_EDGE ( 'NONE', *, *, #62, .T. ) ;
#246 = ORIENTED_EDGE ( 'NONE', *, *, #57, .F. ) ;
#247 = ORIENTED_EDGE ( 'NONE', *, *, #31, .T. ) ;
#248 = ORIENTED_EDGE ( 'NONE', *, *, #34, .F. ) ;
#249 = EDGE_LOOP ( 'NONE', ( #196, #218, #229, #220 ) ) ;
#250 = EDGE_LOOP ( 'NONE', ( #197, #247, #313, #199 ) ) ;
#251 = EDGE_LOOP ( 'NONE', ( #217, #221 ) ) ;
#252 = EDGE_LOOP ( 'NONE', ( #242, #240, #215, #208 ) ) ;
#253 = EDGE_LOOP ( 'NONE', ( #246, #201 ) ) ;
#254 = EDGE_LOOP ( 'NONE', ( #230, #195, #311, #204 ) ) ;
#255 = EDGE_LOOP ( 'NONE', ( #205, #239 ) ) ;
#256 = EDGE_LOOP ( 'NONE', ( #202, #314, #219, #244 ) ) ;
#257 = FACE_OUTER_BOUND ( 'NONE', #250, .T. ) ;
#258 = FACE_BOUND ( 'NONE', #231, .T. ) ;
#259 = CIRCLE ( 'NONE', #49, 7.300000000000015800 ) ;
#260 = FACE_OUTER_BOUND ( 'NONE', #254, .T. ) ;
#261 = CYLINDRICAL_SURFACE ( 'NONE', #24, 7.000000000000000000 ) ;
#262 = FACE_OUTER_BOUND ( 'NONE', #251, .T. ) ;
#263 = FACE_OUTER_BOUND ( 'NONE', #256, .T. ) ;
#264 = FACE_OUTER_BOUND ( 'NONE', #255, .T. ) ;
#265 = CIRCLE ( 'NONE', #35, 7.000000000000000000 ) ;
#266 = FACE_OUTER_BOUND ( 'NONE', #249, .T. ) ;
#267 = CYLINDRICAL_SURFACE ( 'NONE', #20, 7.000000000000000000 ) ;
#268 = LINE ( 'NONE', #70, #278 ) ;
#269 = CYLINDRICAL_SURFACE ( 'NONE', #45, 8.000000000000000000 ) ;
#270 = FACE_OUTER_BOUND ( 'NONE', #252, .T. ) ;
#271 = CONICAL_SURFACE ( 'NONE', #19, 7.299999999999999800, 0.3141592653620729500 ) ;
#272 = FACE_OUTER_BOUND ( 'NONE', #214, .T. ) ;
#273 = CONICAL_SURFACE ( 'NONE', #18, 7.299999999999999800, 0.3141592653620731100 ) ;
#274 = FACE_OUTER_BOUND ( 'NONE', #233, .T. ) ;
#275 = CONICAL_SURFACE ( 'NONE', #23, 7.299999999999999800, 0.3141592653620731100 ) ;
#276 = FACE_OUTER_BOUND ( 'NONE', #232, .T. ) ;
#277 = CIRCLE ( 'NONE', #46, 8.000000000000000000 ) ;
#278 = VECTOR ( 'NONE', #120, 1000.000000000000200 ) ;
#279 = CYLINDRICAL_SURFACE ( 'NONE', #44, 8.000000000000000000 ) ;
#280 = CIRCLE ( 'NONE', #17, 7.299999999999999800 ) ;
#281 = CONICAL_SURFACE ( 'NONE', #26, 7.299999999999999800, 0.3141592653620729500 ) ;
#282 = LINE ( 'NONE', #141, #293 ) ;
#283 = VECTOR ( 'NONE', #179, 1000.000000000000000 ) ;
#284 = LINE ( 'NONE', #173, #289 ) ;
#285 = LINE ( 'NONE', #153, #291 ) ;
#286 = LINE ( 'NONE', #165, #283 ) ;
#287 = VECTOR ( 'NONE', #149, 1000.000000000000000 ) ;
#288 = CIRCLE ( 'NONE', #48, 7.000000000000000000 ) ;
#289 = VECTOR ( 'NONE', #144, 1000.000000000000000 ) ;
#290 = LINE ( 'NONE', #147, #287 ) ;
#291 = VECTOR ( 'NONE', #142, 1000.000000000000100 ) ;
#292 = CIRCLE ( 'NONE', #47, 7.299999999999999800 ) ;
#293 = VECTOR ( 'NONE', #136, 1000.000000000000000 ) ;
#294 = SURFACE_STYLE_FILL_AREA ( #123 ) ;
#295 = PRESENTATION_STYLE_ASSIGNMENT (( #78 ) ) ;
#296 = CIRCLE ( 'NONE', #56, 8.000000000000000000 ) ;
#297 = LINE ( 'NONE', #101, #298 ) ;
#298 = VECTOR ( 'NONE', #105, 1000.000000000000200 ) ;
#299 = CIRCLE ( 'NONE', #51, 8.000000000000000000 ) ;
#300 = CIRCLE ( 'NONE', #50, 7.300000000000015800 ) ;
#301 = CIRCLE ( 'NONE', #55, 7.000000000000000000 ) ;
#302 = CIRCLE ( 'NONE', #52, 8.000000000000000000 ) ;
#303 = CIRCLE ( 'NONE', #65, 7.000000000000000000 ) ;
#304 = VECTOR ( 'NONE', #143, 1000.000000000000100 ) ;
#305 = ORIENTED_EDGE ( 'NONE', *, *, #53, .T. ) ;
#306 = ORIENTED_EDGE ( 'NONE', *, *, #25, .T. ) ;
#307 = LINE ( 'NONE', #148, #304 ) ;
#308 = ORIENTED_EDGE ( 'NONE', *, *, #43, .F. ) ;
#309 = COLOUR_RGB ( '',1.000000000000000000, 1.000000000000000000, 1.000000000000000000 ) ;
#310 = VERTEX_POINT ( 'NONE', #104 ) ;
#311 = ORIENTED_EDGE ( 'NONE', *, *, #38, .T. ) ;
#312 = ORIENTED_EDGE ( 'NONE', *, *, #41, .T. ) ;
#313 = ORIENTED_EDGE ( 'NONE', *, *, #40, .T. ) ;
#314 = ORIENTED_EDGE ( 'NONE', *, *, #43, .T. ) ;
ENDSEC;
END-ISO-10303-21;
