ISO-10303-21;
HEADER;
FILE_DESCRIPTION (( 'STEP AP214' ),
    '1' );
FILE_NAME ('107400002Y300A.STEP',
    '2013-02-25T17:21:30',
    ( '' ),
    ( '' ),
    'SwSTEP 2.0',
    'SolidWorks 2012',
    '' );
FILE_SCHEMA (( 'AUTOMOTIVE_DESIGN' ));
ENDSEC;

DATA;
#1 = ADVANCED_FACE ( 'NONE', ( #273 ), #269, .F. ) ;
#2 = ADVANCED_FACE ( 'NONE', ( #272 ), #267, .T. ) ;
#3 = ADVANCED_FACE ( 'NONE', ( #270 ), #263, .T. ) ;
#4 = ADVANCED_FACE ( 'NONE', ( #268, #271 ), #178, .T. ) ;
#5 = ADVANCED_FACE ( 'NONE', ( #240, #262 ), #168, .T. ) ;
#6 = ADVANCED_FACE ( 'NONE', ( #266 ), #257, .T. ) ;
#7 = ADVANCED_FACE ( 'NONE', ( #264 ), #255, .T. ) ;
#8 = ADVANCED_FACE ( 'NONE', ( #258 ), #253, .T. ) ;
#9 = ADVANCED_FACE ( 'NONE', ( #256 ), #265, .F. ) ;
#10 = ADVANCED_FACE ( 'NONE', ( #254 ), #251, .T. ) ;
#11 = PRODUCT_RELATED_PRODUCT_CATEGORY ( 'part', '', ( #86 ) ) ;
#12 = PRODUCT_DEFINITION_FORMATION_WITH_SPECIFIED_SOURCE ( 'TUTTO', '', #86, .NOT_KNOWN. ) ;
#13 = PRODUCT_DEFINITION ( 'NON CONOSCIUTO', '', #12, #213 ) ;
#14 = AXIS2_PLACEMENT_3D ( 'NONE', #81, #82, #83 ) ;
#15 = STYLED_ITEM ( 'NONE', ( #246 ), #217 ) ;
#16 =( GEOMETRIC_REPRESENTATION_CONTEXT ( 3 ) GLOBAL_UNCERTAINTY_ASSIGNED_CONTEXT ( ( #214 ) ) GLOBAL_UNIT_ASSIGNED_CONTEXT ( ( #78, #79, #80 ) ) REPRESENTATION_CONTEXT ( 'NONE', 'WORKASPACE' ) );
#17 = MECHANICAL_DESIGN_GEOMETRIC_PRESENTATION_REPRESENTATION (  '', ( #19 ), #16 ) ;
#18 = PRESENTATION_LAYER_ASSIGNMENT (  '', '', ( #19 ) ) ;
#19 = STYLED_ITEM ( 'NONE', ( #298 ), #218 ) ;
#20 = AXIS2_PLACEMENT_3D ( 'NONE', #121, #120, #119 ) ;
#21 =( GEOMETRIC_REPRESENTATION_CONTEXT ( 3 ) GLOBAL_UNCERTAINTY_ASSIGNED_CONTEXT ( ( #215 ) ) GLOBAL_UNIT_ASSIGNED_CONTEXT ( ( #90, #99, #131 ) ) REPRESENTATION_CONTEXT ( 'NONE', 'WORKASPACE' ) );
#22 =( GEOMETRIC_REPRESENTATION_CONTEXT ( 3 ) GLOBAL_UNCERTAINTY_ASSIGNED_CONTEXT ( ( #216 ) ) GLOBAL_UNIT_ASSIGNED_CONTEXT ( ( #98, #97, #95 ) ) REPRESENTATION_CONTEXT ( 'NONE', 'WORKASPACE' ) );
#23 = MECHANICAL_DESIGN_GEOMETRIC_PRESENTATION_REPRESENTATION (  '', ( #15 ), #22 ) ;
#24 = AXIS2_PLACEMENT_3D ( 'NONE', #105, #104, #103 ) ;
#25 = AXIS2_PLACEMENT_3D ( 'NONE', #203, #96, #210 ) ;
#26 = PRESENTATION_LAYER_ASSIGNMENT (  '', '', ( #15 ) ) ;
#27 = EDGE_CURVE ( 'NONE', #336, #328, #252, .T. ) ;
#28 = EDGE_CURVE ( 'NONE', #337, #323, #260, .T. ) ;
#29 = AXIS2_PLACEMENT_3D ( 'NONE', #173, #175, #197 ) ;
#30 = AXIS2_PLACEMENT_3D ( 'NONE', #194, #191, #211 ) ;
#31 = EDGE_CURVE ( 'NONE', #345, #317, #261, .T. ) ;
#32 = EDGE_CURVE ( 'NONE', #324, #339, #259, .T. ) ;
#33 = AXIS2_PLACEMENT_3D ( 'NONE', #209, #208, #207 ) ;
#34 = AXIS2_PLACEMENT_3D ( 'NONE', #184, #183, #182 ) ;
#35 = EDGE_CURVE ( 'NONE', #351, #353, #250, .T. ) ;
#36 = EDGE_CURVE ( 'NONE', #343, #338, #249, .T. ) ;
#37 = EDGE_CURVE ( 'NONE', #346, #344, #247, .T. ) ;
#38 = EDGE_CURVE ( 'NONE', #351, #340, #241, .T. ) ;
#39 = EDGE_CURVE ( 'NONE', #340, #324, #248, .T. ) ;
#40 = EDGE_CURVE ( 'NONE', #350, #340, #235, .T. ) ;
#41 = EDGE_CURVE ( 'NONE', #328, #346, #232, .T. ) ;
#42 = AXIS2_PLACEMENT_3D ( 'NONE', #112, #108, #116 ) ;
#43 = AXIS2_PLACEMENT_3D ( 'NONE', #160, #159, #158 ) ;
#44 = AXIS2_PLACEMENT_3D ( 'NONE', #127, #126, #125 ) ;
#45 = AXIS2_PLACEMENT_3D ( 'NONE', #140, #136, #134 ) ;
#46 = EDGE_CURVE ( 'NONE', #323, #337, #231, .T. ) ;
#47 = EDGE_CURVE ( 'NONE', #343, #317, #230, .T. ) ;
#48 = EDGE_CURVE ( 'NONE', #317, #345, #239, .T. ) ;
#49 = EDGE_CURVE ( 'NONE', #324, #336, #227, .T. ) ;
#50 = EDGE_CURVE ( 'NONE', #339, #350, #226, .T. ) ;
#51 = EDGE_CURVE ( 'NONE', #337, #344, #224, .T. ) ;
#52 = EDGE_CURVE ( 'NONE', #338, #343, #229, .T. ) ;
#53 = EDGE_CURVE ( 'NONE', #350, #346, #221, .T. ) ;
#54 = AXIS2_PLACEMENT_3D ( 'NONE', #170, #169, #166 ) ;
#55 = AXIS2_PLACEMENT_3D ( 'NONE', #196, #195, #193 ) ;
#56 = AXIS2_PLACEMENT_3D ( 'NONE', #179, #181, #174 ) ;
#57 = AXIS2_PLACEMENT_3D ( 'NONE', #151, #171, #156 ) ;
#58 = AXIS2_PLACEMENT_3D ( 'NONE', #199, #198, #190 ) ;
#59 = EDGE_CURVE ( 'NONE', #344, #336, #220, .T. ) ;
#60 = AXIS2_PLACEMENT_3D ( 'NONE', #180, #177, #176 ) ;
#61 = AXIS2_PLACEMENT_3D ( 'NONE', #189, #188, #187 ) ;
#62 = AXIS2_PLACEMENT_3D ( 'NONE', #155, #154, #153 ) ;
#63 = EDGE_CURVE ( 'NONE', #338, #345, #233, .T. ) ;
#64 = EDGE_CURVE ( 'NONE', #323, #328, #300, .T. ) ;
#65 = EDGE_CURVE ( 'NONE', #353, #339, #223, .T. ) ;
#66 = AXIS2_PLACEMENT_3D ( 'NONE', #147, #146, #145 ) ;
#67 = AXIS2_PLACEMENT_3D ( 'NONE', #165, #164, #163 ) ;
#68 = EDGE_CURVE ( 'NONE', #353, #351, #237, .T. ) ;
#69 = AXIS2_PLACEMENT_3D ( 'NONE', #202, #201, #200 ) ;
#70 = AXIS2_PLACEMENT_3D ( 'NONE', #144, #142, #150 ) ;
#71 = AXIS2_PLACEMENT_3D ( 'NONE', #139, #130, #141 ) ;
#72 = AXIS2_PLACEMENT_3D ( 'NONE', #206, #205, #204 ) ;
#73 = AXIS2_PLACEMENT_3D ( 'NONE', #123, #117, #124 ) ;
#74 = APPLICATION_PROTOCOL_DEFINITION ( 'draft international standard', 'automotive_design', 1998, #85 ) ;
#75 = FILL_AREA_STYLE ('',( #138 ) ) ;
#76 = SURFACE_SIDE_STYLE ('',( #219 ) ) ;
#77 = SURFACE_STYLE_USAGE ( .BOTH. , #76 ) ;
#78 =( LENGTH_UNIT ( ) NAMED_UNIT ( * ) SI_UNIT ( .MILLI., .METRE. ) );
#79 =( NAMED_UNIT ( * ) PLANE_ANGLE_UNIT ( ) SI_UNIT ( $, .RADIAN. ) );
#80 =( NAMED_UNIT ( * ) SI_UNIT ( $, .STERADIAN. ) SOLID_ANGLE_UNIT ( ) );
#81 = CARTESIAN_POINT ( 'NONE',  ( 0.0000000000000000000, 0.0000000000000000000, 0.0000000000000000000 ) ) ;
#82 = DIRECTION ( 'NONE',  ( 0.0000000000000000000, 0.0000000000000000000, 1.000000000000000000 ) ) ;
#83 = DIRECTION ( 'NONE',  ( 1.000000000000000000, 0.0000000000000000000, 0.0000000000000000000 ) ) ;
#84 = PRODUCT_CONTEXT ( 'NONE', #167, 'mechanical' ) ;
#85 = APPLICATION_CONTEXT ( 'automotive_design' ) ;
#86 = PRODUCT ( '107400002Y300A', '107400002Y300A', '', ( #84 ) ) ;
#87 = CARTESIAN_POINT ( 'NONE',  ( 0.0000000000000000000, 6.345621523999978000, -8.000000000000007100 ) ) ;
#88 = CARTESIAN_POINT ( 'NONE',  ( 0.0000000000000000000, 0.0000000000000000000, 7.000000000000000000 ) ) ;
#89 = CARTESIAN_POINT ( 'NONE',  ( 8.000000000000000000, 2.154378476000085000, 0.0000000000000000000 ) ) ;
#90 =( LENGTH_UNIT ( ) NAMED_UNIT ( * ) SI_UNIT ( .MILLI., .METRE. ) );
#91 = CARTESIAN_POINT ( 'NONE',  ( 0.0000000000000000000, 0.0000000000000000000, 7.299999999999999800 ) ) ;
#92 = CARTESIAN_POINT ( 'NONE',  ( 9.368548013477252200E-016, 0.0000000000000000000, -7.299999999999999800 ) ) ;
#93 = CARTESIAN_POINT ( 'NONE',  ( 9.797174393178835500E-016, 6.345621523999978000, 8.000000000000007100 ) ) ;
#94 = CARTESIAN_POINT ( 'NONE',  ( 8.000000000000000000, 6.345621523999978000, 0.0000000000000000000 ) ) ;
#95 =( NAMED_UNIT ( * ) SI_UNIT ( $, .STERADIAN. ) SOLID_ANGLE_UNIT ( ) );
#96 = DIRECTION ( 'NONE',  ( -5.421010862427522200E-017, -1.000000000000000000, 0.0000000000000000000 ) ) ;
#97 =( NAMED_UNIT ( * ) PLANE_ANGLE_UNIT ( ) SI_UNIT ( $, .RADIAN. ) );
#98 =( LENGTH_UNIT ( ) NAMED_UNIT ( * ) SI_UNIT ( .MILLI., .METRE. ) );
#99 =( NAMED_UNIT ( * ) PLANE_ANGLE_UNIT ( ) SI_UNIT ( $, .RADIAN. ) );
#100 = SURFACE_STYLE_USAGE ( .BOTH. , #101 ) ;
#101 = SURFACE_SIDE_STYLE ('',( #243 ) ) ;
#102 = CARTESIAN_POINT ( 'NONE',  ( 0.0000000000000000000, 2.154378476000085000, 8.000000000000028400 ) ) ;
#103 = DIRECTION ( 'NONE',  ( 0.0000000000000000000, 0.0000000000000000000, -1.000000000000000000 ) ) ;
#104 = DIRECTION ( 'NONE',  ( -0.0000000000000000000, 1.000000000000000000, -0.0000000000000000000 ) ) ;
#105 = CARTESIAN_POINT ( 'NONE',  ( 0.0000000000000000000, 8.499999999999952000, 0.0000000000000000000 ) ) ;
#106 = CARTESIAN_POINT ( 'NONE',  ( -8.000000000000000000, 2.154378476000085000, 9.797174393178825700E-016 ) ) ;
#107 = CARTESIAN_POINT ( 'NONE',  ( 8.572527594031473200E-016, 8.500000000000000000, -7.000000000000000000 ) ) ;
#108 = DIRECTION ( 'NONE',  ( -5.421010862427522200E-017, -1.000000000000000000, 0.0000000000000000000 ) ) ;
#109 = FILL_AREA_STYLE ('',( #110 ) ) ;
#110 = FILL_AREA_STYLE_COLOUR ( '', #242 ) ;
#111 = CARTESIAN_POINT ( 'NONE',  ( 8.572527594031473200E-016, 0.0000000000000000000, -7.000000000000000000 ) ) ;
#112 = CARTESIAN_POINT ( 'NONE',  ( 0.0000000000000000000, 6.345621524000000200, 0.0000000000000000000 ) ) ;
#113 = DIRECTION ( 'NONE',  ( 3.784366730470181200E-017, -0.9510565162941975200, 0.3090169943778896000 ) ) ;
#114 = DIRECTION ( 'NONE',  ( 3.784366730470183000E-017, 0.9510565162941975200, -0.3090169943778897100 ) ) ;
#115 = CARTESIAN_POINT ( 'NONE',  ( 9.797174393178859200E-016, 2.154378476000085000, -8.000000000000028400 ) ) ;
#116 = DIRECTION ( 'NONE',  ( 1.000000000000000000, 0.0000000000000000000, 0.0000000000000000000 ) ) ;
#117 = DIRECTION ( 'NONE',  ( 0.0000000000000000000, 1.000000000000000000, 0.0000000000000000000 ) ) ;
#118 = CARTESIAN_POINT ( 'NONE',  ( 8.939921633775678800E-016, 0.0000000000000000000, -7.299999999999999800 ) ) ;
#119 = DIRECTION ( 'NONE',  ( 0.0000000000000000000, -1.067939139898221900E-014, 1.000000000000000000 ) ) ;
#120 = DIRECTION ( 'NONE',  ( 0.0000000000000000000, 1.000000000000000000, 0.0000000000000000000 ) ) ;
#121 = CARTESIAN_POINT ( 'NONE',  ( 0.0000000000000000000, 2.154378476000085000, 0.0000000000000000000 ) ) ;
#122 = CARTESIAN_POINT ( 'NONE',  ( 8.939921633775678800E-016, 8.500000000000000000, 7.299999999999999800 ) ) ;
#123 = CARTESIAN_POINT ( 'NONE',  ( 0.0000000000000000000, 0.0000000000000000000, 0.0000000000000000000 ) ) ;
#124 = DIRECTION ( 'NONE',  ( 0.0000000000000000000, 0.0000000000000000000, 1.000000000000000000 ) ) ;
#125 = DIRECTION ( 'NONE',  ( 0.0000000000000000000, 0.0000000000000000000, 1.000000000000000000 ) ) ;
#126 = DIRECTION ( 'NONE',  ( -0.0000000000000000000, -1.000000000000000000, -0.0000000000000000000 ) ) ;
#127 = CARTESIAN_POINT ( 'NONE',  ( 0.0000000000000000000, 0.0000000000000000000, 0.0000000000000000000 ) ) ;
#128 = DIRECTION ( 'NONE',  ( 0.0000000000000000000, 1.000000000000000000, 0.0000000000000000000 ) ) ;
#129 = CARTESIAN_POINT ( 'NONE',  ( 0.0000000000000000000, 0.0000000000000000000, 7.000000000000000000 ) ) ;
#130 = DIRECTION ( 'NONE',  ( 0.0000000000000000000, -1.000000000000000000, 0.0000000000000000000 ) ) ;
#131 =( NAMED_UNIT ( * ) SI_UNIT ( $, .STERADIAN. ) SOLID_ANGLE_UNIT ( ) );
#132 = CARTESIAN_POINT ( 'NONE',  ( -8.000000000000000000, 6.345621524000000200, 9.797174393178825700E-016 ) ) ;
#133 = CARTESIAN_POINT ( 'NONE',  ( 0.0000000000000000000, 8.500000000000000000, 7.000000000000000000 ) ) ;
#134 = DIRECTION ( 'NONE',  ( 0.0000000000000000000, 2.818925648462311500E-015, -1.000000000000000000 ) ) ;
#135 = CARTESIAN_POINT ( 'NONE',  ( 9.368548013477260100E-016, 8.499999999999952000, 7.300000000000015800 ) ) ;
#136 = DIRECTION ( 'NONE',  ( 0.0000000000000000000, -1.000000000000000000, 0.0000000000000000000 ) ) ;
#137 = CARTESIAN_POINT ( 'NONE',  ( 0.0000000000000000000, 8.499999999999952000, -7.300000000000015800 ) ) ;
#138 = FILL_AREA_STYLE_COLOUR ( '', #305 ) ;
#139 = CARTESIAN_POINT ( 'NONE',  ( 0.0000000000000000000, 8.500000000000000000, 0.0000000000000000000 ) ) ;
#140 = CARTESIAN_POINT ( 'NONE',  ( 0.0000000000000000000, 6.345621523999978000, 0.0000000000000000000 ) ) ;
#141 = DIRECTION ( 'NONE',  ( 0.0000000000000000000, 0.0000000000000000000, -1.000000000000000000 ) ) ;
#142 = DIRECTION ( 'NONE',  ( 0.0000000000000000000, -1.000000000000000000, 0.0000000000000000000 ) ) ;
#143 = DIRECTION ( 'NONE',  ( -5.421010862427522200E-017, -1.000000000000000000, 0.0000000000000000000 ) ) ;
#144 = CARTESIAN_POINT ( 'NONE',  ( 0.0000000000000000000, 8.500000000000000000, 0.0000000000000000000 ) ) ;
#145 = DIRECTION ( 'NONE',  ( 0.0000000000000000000, 0.0000000000000000000, 1.000000000000000000 ) ) ;
#146 = DIRECTION ( 'NONE',  ( 0.0000000000000000000, 1.000000000000000000, 0.0000000000000000000 ) ) ;
#147 = CARTESIAN_POINT ( 'NONE',  ( 0.0000000000000000000, 8.500000000000000000, 0.0000000000000000000 ) ) ;
#148 = DIRECTION ( 'NONE',  ( 0.0000000000000000000, 0.9510565162941975200, 0.3090169943778897100 ) ) ;
#149 = CARTESIAN_POINT ( 'NONE',  ( 0.0000000000000000000, 0.0000000000000000000, 7.299999999999999800 ) ) ;
#150 = DIRECTION ( 'NONE',  ( 0.0000000000000000000, 0.0000000000000000000, -1.000000000000000000 ) ) ;
#151 = CARTESIAN_POINT ( 'NONE',  ( 0.0000000000000000000, 0.0000000000000000000, 0.0000000000000000000 ) ) ;
#152 = CARTESIAN_POINT ( 'NONE',  ( 8.000000000000000000, 6.345621524000000200, 0.0000000000000000000 ) ) ;
#153 = DIRECTION ( 'NONE',  ( 0.0000000000000000000, 0.0000000000000000000, 1.000000000000000000 ) ) ;
#154 = DIRECTION ( 'NONE',  ( 0.0000000000000000000, -1.000000000000000000, -0.0000000000000000000 ) ) ;
#155 = CARTESIAN_POINT ( 'NONE',  ( 0.0000000000000000000, 0.0000000000000000000, 0.0000000000000000000 ) ) ;
#156 = DIRECTION ( 'NONE',  ( 0.0000000000000000000, 0.0000000000000000000, 1.000000000000000000 ) ) ;
#157 = DIRECTION ( 'NONE',  ( -5.421010862427522200E-017, -1.000000000000000000, 0.0000000000000000000 ) ) ;
#158 = DIRECTION ( 'NONE',  ( 0.0000000000000000000, -1.067939139898221900E-014, 1.000000000000000000 ) ) ;
#159 = DIRECTION ( 'NONE',  ( 0.0000000000000000000, 1.000000000000000000, 0.0000000000000000000 ) ) ;
#160 = CARTESIAN_POINT ( 'NONE',  ( 0.0000000000000000000, 2.154378476000085000, 0.0000000000000000000 ) ) ;
#161 = DIRECTION ( 'NONE',  ( 0.0000000000000000000, 1.000000000000000000, 0.0000000000000000000 ) ) ;
#162 = CARTESIAN_POINT ( 'NONE',  ( 8.572527594031473200E-016, 0.0000000000000000000, -7.000000000000000000 ) ) ;
#163 = DIRECTION ( 'NONE',  ( 0.0000000000000000000, 2.818925648462311500E-015, -1.000000000000000000 ) ) ;
#164 = DIRECTION ( 'NONE',  ( 0.0000000000000000000, -1.000000000000000000, 0.0000000000000000000 ) ) ;
#165 = CARTESIAN_POINT ( 'NONE',  ( 0.0000000000000000000, 6.345621523999978000, 0.0000000000000000000 ) ) ;
#166 = DIRECTION ( 'NONE',  ( 0.0000000000000000000, 2.818925648462311500E-015, -1.000000000000000000 ) ) ;
#167 = APPLICATION_CONTEXT ( 'automotive_design' ) ;
#168 = PLANE ( 'NONE',  #29 ) ;
#169 = DIRECTION ( 'NONE',  ( 0.0000000000000000000, -1.000000000000000000, 0.0000000000000000000 ) ) ;
#170 = CARTESIAN_POINT ( 'NONE',  ( 0.0000000000000000000, 6.345621523999978000, 0.0000000000000000000 ) ) ;
#171 = DIRECTION ( 'NONE',  ( -0.0000000000000000000, 1.000000000000000000, 0.0000000000000000000 ) ) ;
#172 = APPLICATION_PROTOCOL_DEFINITION ( 'draft international standard', 'automotive_design', 1998, #167 ) ;
#173 = CARTESIAN_POINT ( 'NONE',  ( -7.387599999999999900, 8.500000000000000000, -7.387599999999999900 ) ) ;
#174 = DIRECTION ( 'NONE',  ( 0.0000000000000000000, 0.0000000000000000000, -1.000000000000000000 ) ) ;
#175 = DIRECTION ( 'NONE',  ( 0.0000000000000000000, 1.000000000000000000, 0.0000000000000000000 ) ) ;
#176 = DIRECTION ( 'NONE',  ( 0.0000000000000000000, -1.067939139898221900E-014, 1.000000000000000000 ) ) ;
#177 = DIRECTION ( 'NONE',  ( 0.0000000000000000000, 1.000000000000000000, 0.0000000000000000000 ) ) ;
#178 = PLANE ( 'NONE',  #56 ) ;
#179 = CARTESIAN_POINT ( 'NONE',  ( -7.387599999999999900, 0.0000000000000000000, 7.387599999999999900 ) ) ;
#180 = CARTESIAN_POINT ( 'NONE',  ( 0.0000000000000000000, 2.154378476000085000, 0.0000000000000000000 ) ) ;
#181 = DIRECTION ( 'NONE',  ( 0.0000000000000000000, -1.000000000000000000, 0.0000000000000000000 ) ) ;
#182 = DIRECTION ( 'NONE',  ( 0.0000000000000000000, 0.0000000000000000000, 1.000000000000000000 ) ) ;
#183 = DIRECTION ( 'NONE',  ( -0.0000000000000000000, -1.000000000000000000, -0.0000000000000000000 ) ) ;
#184 = CARTESIAN_POINT ( 'NONE',  ( 0.0000000000000000000, 0.0000000000000000000, 0.0000000000000000000 ) ) ;
#185 = DIRECTION ( 'NONE',  ( 0.0000000000000000000, -0.9510565162941975200, -0.3090169943778896000 ) ) ;
#186 = CARTESIAN_POINT ( 'NONE',  ( 0.0000000000000000000, 8.500000000000000000, -7.299999999999999800 ) ) ;
#187 = DIRECTION ( 'NONE',  ( 0.0000000000000000000, 0.0000000000000000000, -1.000000000000000000 ) ) ;
#188 = DIRECTION ( 'NONE',  ( -0.0000000000000000000, 1.000000000000000000, -0.0000000000000000000 ) ) ;
#189 = CARTESIAN_POINT ( 'NONE',  ( 0.0000000000000000000, 8.499999999999952000, 0.0000000000000000000 ) ) ;
#190 = DIRECTION ( 'NONE',  ( 0.0000000000000000000, 0.0000000000000000000, 1.000000000000000000 ) ) ;
#191 = DIRECTION ( 'NONE',  ( -0.0000000000000000000, 1.000000000000000000, 0.0000000000000000000 ) ) ;
#192 = CARTESIAN_POINT ( 'NONE',  ( -8.000000000000000000, 6.345621523999978000, 9.797174393178825700E-016 ) ) ;
#193 = DIRECTION ( 'NONE',  ( 0.0000000000000000000, 2.818925648462311500E-015, -1.000000000000000000 ) ) ;
#194 = CARTESIAN_POINT ( 'NONE',  ( 0.0000000000000000000, 0.0000000000000000000, 0.0000000000000000000 ) ) ;
#195 = DIRECTION ( 'NONE',  ( 0.0000000000000000000, -1.000000000000000000, 0.0000000000000000000 ) ) ;
#196 = CARTESIAN_POINT ( 'NONE',  ( 0.0000000000000000000, 6.345621523999978000, 0.0000000000000000000 ) ) ;
#197 = DIRECTION ( 'NONE',  ( 0.0000000000000000000, 0.0000000000000000000, 1.000000000000000000 ) ) ;
#198 = DIRECTION ( 'NONE',  ( 0.0000000000000000000, 1.000000000000000000, 0.0000000000000000000 ) ) ;
#199 = CARTESIAN_POINT ( 'NONE',  ( 0.0000000000000000000, 0.0000000000000000000, 0.0000000000000000000 ) ) ;
#200 = DIRECTION ( 'NONE',  ( 0.0000000000000000000, 0.0000000000000000000, 1.000000000000000000 ) ) ;
#201 = DIRECTION ( 'NONE',  ( 0.0000000000000000000, 1.000000000000000000, 0.0000000000000000000 ) ) ;
#202 = CARTESIAN_POINT ( 'NONE',  ( 0.0000000000000000000, 8.500000000000000000, 0.0000000000000000000 ) ) ;
#203 = CARTESIAN_POINT ( 'NONE',  ( 0.0000000000000000000, 6.345621524000000200, 0.0000000000000000000 ) ) ;
#204 = DIRECTION ( 'NONE',  ( 0.0000000000000000000, 0.0000000000000000000, 1.000000000000000000 ) ) ;
#205 = DIRECTION ( 'NONE',  ( 0.0000000000000000000, -1.000000000000000000, -0.0000000000000000000 ) ) ;
#206 = CARTESIAN_POINT ( 'NONE',  ( 0.0000000000000000000, 0.0000000000000000000, 0.0000000000000000000 ) ) ;
#207 = DIRECTION ( 'NONE',  ( 0.0000000000000000000, -1.067939139898221900E-014, 1.000000000000000000 ) ) ;
#208 = DIRECTION ( 'NONE',  ( 0.0000000000000000000, 1.000000000000000000, 0.0000000000000000000 ) ) ;
#209 = CARTESIAN_POINT ( 'NONE',  ( 0.0000000000000000000, 2.154378476000085000, 0.0000000000000000000 ) ) ;
#210 = DIRECTION ( 'NONE',  ( 1.000000000000000000, 0.0000000000000000000, 0.0000000000000000000 ) ) ;
#211 = DIRECTION ( 'NONE',  ( 0.0000000000000000000, 0.0000000000000000000, 1.000000000000000000 ) ) ;
#212 = PRODUCT_DEFINITION_SHAPE ( 'NONE', 'NONE',  #13 ) ;
#213 = PRODUCT_DEFINITION_CONTEXT ( 'detailed design', #85, 'design' ) ;
#214 = UNCERTAINTY_MEASURE_WITH_UNIT (LENGTH_MEASURE( 1.000000000000000100E-005 ), #78, 'distance_accuracy_value', 'NONE');
#215 = UNCERTAINTY_MEASURE_WITH_UNIT (LENGTH_MEASURE( 1.000000000000000100E-005 ), #90, 'distance_accuracy_value', 'NONE');
#216 = UNCERTAINTY_MEASURE_WITH_UNIT (LENGTH_MEASURE( 1.000000000000000100E-005 ), #98, 'distance_accuracy_value', 'NONE');
#217 = MANIFOLD_SOLID_BREP ( 'Importato1', #285 ) ;
#218 = ADVANCED_BREP_SHAPE_REPRESENTATION ( '107400002Y300A', ( #217, #14 ), #21 ) ;
#219 = SURFACE_STYLE_FILL_AREA ( #75 ) ;
#220 = CIRCLE ( 'NONE', #20, 8.000000000000000000 ) ;
#221 = LINE ( 'NONE', #132, #325 ) ;
#222 = VECTOR ( 'NONE', #148, 1000.000000000000200 ) ;
#223 = LINE ( 'NONE', #122, #245 ) ;
#224 = LINE ( 'NONE', #149, #222 ) ;
#225 = VECTOR ( 'NONE', #157, 1000.000000000000000 ) ;
#226 = CIRCLE ( 'NONE', #45, 8.000000000000000000 ) ;
#227 = LINE ( 'NONE', #152, #225 ) ;
#228 = VECTOR ( 'NONE', #161, 1000.000000000000000 ) ;
#229 = CIRCLE ( 'NONE', #44, 7.000000000000000000 ) ;
#230 = LINE ( 'NONE', #162, #228 ) ;
#231 = CIRCLE ( 'NONE', #62, 7.299999999999999800 ) ;
#232 = CIRCLE ( 'NONE', #43, 8.000000000000000000 ) ;
#233 = LINE ( 'NONE', #129, #236 ) ;
#234 = VECTOR ( 'NONE', #114, 1000.000000000000200 ) ;
#235 = CIRCLE ( 'NONE', #67, 8.000000000000000000 ) ;
#236 = VECTOR ( 'NONE', #128, 1000.000000000000000 ) ;
#237 = CIRCLE ( 'NONE', #24, 7.300000000000015800 ) ;
#238 = VECTOR ( 'NONE', #185, 1000.000000000000100 ) ;
#239 = CIRCLE ( 'NONE', #66, 7.000000000000000000 ) ;
#240 = FACE_BOUND ( 'NONE', #277, .T. ) ;
#241 = LINE ( 'NONE', #186, #238 ) ;
#242 = COLOUR_RGB ( '',0.9882352941176471000, 0.8705882352941176600, 0.5490196078431373000 ) ;
#243 = SURFACE_STYLE_FILL_AREA ( #109 ) ;
#244 = SHAPE_DEFINITION_REPRESENTATION ( #212, #218 ) ;
#245 = VECTOR ( 'NONE', #113, 1000.000000000000100 ) ;
#246 = PRESENTATION_STYLE_ASSIGNMENT (( #100 ) ) ;
#247 = CIRCLE ( 'NONE', #60, 8.000000000000000000 ) ;
#248 = CIRCLE ( 'NONE', #54, 8.000000000000000000 ) ;
#249 = CIRCLE ( 'NONE', #34, 7.000000000000000000 ) ;
#250 = CIRCLE ( 'NONE', #61, 7.300000000000015800 ) ;
#251 = CYLINDRICAL_SURFACE ( 'NONE', #42, 8.000000000000000000 ) ;
#252 = CIRCLE ( 'NONE', #33, 8.000000000000000000 ) ;
#253 = CONICAL_SURFACE ( 'NONE', #71, 7.299999999999999800, 0.3141592653620729500 ) ;
#254 = FACE_OUTER_BOUND ( 'NONE', #282, .T. ) ;
#255 = CONICAL_SURFACE ( 'NONE', #70, 7.299999999999999800, 0.3141592653620729500 ) ;
#256 = FACE_OUTER_BOUND ( 'NONE', #281, .T. ) ;
#257 = CONICAL_SURFACE ( 'NONE', #57, 7.299999999999999800, 0.3141592653620731100 ) ;
#258 = FACE_OUTER_BOUND ( 'NONE', #274, .T. ) ;
#259 = CIRCLE ( 'NONE', #55, 8.000000000000000000 ) ;
#260 = CIRCLE ( 'NONE', #72, 7.299999999999999800 ) ;
#261 = CIRCLE ( 'NONE', #69, 7.000000000000000000 ) ;
#262 = FACE_OUTER_BOUND ( 'NONE', #280, .T. ) ;
#263 = CONICAL_SURFACE ( 'NONE', #30, 7.299999999999999800, 0.3141592653620731100 ) ;
#264 = FACE_OUTER_BOUND ( 'NONE', #275, .T. ) ;
#265 = CYLINDRICAL_SURFACE ( 'NONE', #73, 7.000000000000000000 ) ;
#266 = FACE_OUTER_BOUND ( 'NONE', #284, .T. ) ;
#267 = CYLINDRICAL_SURFACE ( 'NONE', #25, 8.000000000000000000 ) ;
#268 = FACE_BOUND ( 'NONE', #276, .T. ) ;
#269 = CYLINDRICAL_SURFACE ( 'NONE', #58, 7.000000000000000000 ) ;
#270 = FACE_OUTER_BOUND ( 'NONE', #352, .T. ) ;
#271 = FACE_OUTER_BOUND ( 'NONE', #278, .T. ) ;
#272 = FACE_OUTER_BOUND ( 'NONE', #279, .T. ) ;
#273 = FACE_OUTER_BOUND ( 'NONE', #283, .T. ) ;
#274 = EDGE_LOOP ( 'NONE', ( #331, #314, #329, #303, #306 ) ) ;
#275 = EDGE_LOOP ( 'NONE', ( #327, #309, #333, #320, #289 ) ) ;
#276 = EDGE_LOOP ( 'NONE', ( #301, #302 ) ) ;
#277 = EDGE_LOOP ( 'NONE', ( #296, #310 ) ) ;
#278 = EDGE_LOOP ( 'NONE', ( #297, #299 ) ) ;
#279 = EDGE_LOOP ( 'NONE', ( #322, #318, #286, #288, #332, #295 ) ) ;
#280 = EDGE_LOOP ( 'NONE', ( #311, #316 ) ) ;
#281 = EDGE_LOOP ( 'NONE', ( #293, #292, #291, #290 ) ) ;
#282 = EDGE_LOOP ( 'NONE', ( #348, #334, #319, #315, #287, #321 ) ) ;
#283 = EDGE_LOOP ( 'NONE', ( #313, #294, #312, #308 ) ) ;
#284 = EDGE_LOOP ( 'NONE', ( #326, #307, #341, #342, #354 ) ) ;
#285 = CLOSED_SHELL ( 'NONE', ( #1, #7, #6, #10, #9, #5, #4, #8, #3, #2 ) ) ;
#286 = ORIENTED_EDGE ( 'NONE', *, *, #39, .T. ) ;
#287 = ORIENTED_EDGE ( 'NONE', *, *, #59, .T. ) ;
#288 = ORIENTED_EDGE ( 'NONE', *, *, #49, .T. ) ;
#289 = ORIENTED_EDGE ( 'NONE', *, *, #38, .F. ) ;
#290 = ORIENTED_EDGE ( 'NONE', *, *, #31, .T. ) ;
#291 = ORIENTED_EDGE ( 'NONE', *, *, #63, .T. ) ;
#292 = ORIENTED_EDGE ( 'NONE', *, *, #36, .T. ) ;
#293 = ORIENTED_EDGE ( 'NONE', *, *, #47, .F. ) ;
#294 = ORIENTED_EDGE ( 'NONE', *, *, #47, .T. ) ;
#295 = ORIENTED_EDGE ( 'NONE', *, *, #41, .T. ) ;
#296 = ORIENTED_EDGE ( 'NONE', *, *, #31, .F. ) ;
#297 = ORIENTED_EDGE ( 'NONE', *, *, #28, .T. ) ;
#298 = PRESENTATION_STYLE_ASSIGNMENT (( #77 ) ) ;
#299 = ORIENTED_EDGE ( 'NONE', *, *, #46, .T. ) ;
#300 = LINE ( 'NONE', #118, #234 ) ;
#301 = ORIENTED_EDGE ( 'NONE', *, *, #52, .F. ) ;
#302 = ORIENTED_EDGE ( 'NONE', *, *, #36, .F. ) ;
#303 = ORIENTED_EDGE ( 'NONE', *, *, #40, .F. ) ;
#304 = ORIENTED_EDGE ( 'NONE', *, *, #28, .F. ) ;
#305 = COLOUR_RGB ( '',0.9882352941176471000, 0.8705882352941176600, 0.5490196078431373000 ) ;
#306 = ORIENTED_EDGE ( 'NONE', *, *, #50, .F. ) ;
#307 = ORIENTED_EDGE ( 'NONE', *, *, #64, .T. ) ;
#308 = ORIENTED_EDGE ( 'NONE', *, *, #63, .F. ) ;
#309 = ORIENTED_EDGE ( 'NONE', *, *, #65, .T. ) ;
#310 = ORIENTED_EDGE ( 'NONE', *, *, #48, .F. ) ;
#311 = ORIENTED_EDGE ( 'NONE', *, *, #35, .T. ) ;
#312 = ORIENTED_EDGE ( 'NONE', *, *, #48, .T. ) ;
#313 = ORIENTED_EDGE ( 'NONE', *, *, #52, .T. ) ;
#314 = ORIENTED_EDGE ( 'NONE', *, *, #35, .F. ) ;
#315 = ORIENTED_EDGE ( 'NONE', *, *, #37, .T. ) ;
#316 = ORIENTED_EDGE ( 'NONE', *, *, #68, .T. ) ;
#317 = VERTEX_POINT ( 'NONE', #107 ) ;
#318 = ORIENTED_EDGE ( 'NONE', *, *, #40, .T. ) ;
#319 = ORIENTED_EDGE ( 'NONE', *, *, #53, .T. ) ;
#320 = ORIENTED_EDGE ( 'NONE', *, *, #39, .F. ) ;
#321 = ORIENTED_EDGE ( 'NONE', *, *, #49, .F. ) ;
#322 = ORIENTED_EDGE ( 'NONE', *, *, #53, .F. ) ;
#323 = VERTEX_POINT ( 'NONE', #92 ) ;
#324 = VERTEX_POINT ( 'NONE', #94 ) ;
#325 = VECTOR ( 'NONE', #143, 1000.000000000000000 ) ;
#326 = ORIENTED_EDGE ( 'NONE', *, *, #46, .F. ) ;
#327 = ORIENTED_EDGE ( 'NONE', *, *, #68, .F. ) ;
#328 = VERTEX_POINT ( 'NONE', #115 ) ;
#329 = ORIENTED_EDGE ( 'NONE', *, *, #38, .T. ) ;
#330 = ORIENTED_EDGE ( 'NONE', *, *, #37, .F. ) ;
#331 = ORIENTED_EDGE ( 'NONE', *, *, #65, .F. ) ;
#332 = ORIENTED_EDGE ( 'NONE', *, *, #27, .T. ) ;
#333 = ORIENTED_EDGE ( 'NONE', *, *, #32, .F. ) ;
#334 = ORIENTED_EDGE ( 'NONE', *, *, #50, .T. ) ;
#335 = ORIENTED_EDGE ( 'NONE', *, *, #51, .T. ) ;
#336 = VERTEX_POINT ( 'NONE', #89 ) ;
#337 = VERTEX_POINT ( 'NONE', #91 ) ;
#338 = VERTEX_POINT ( 'NONE', #88 ) ;
#339 = VERTEX_POINT ( 'NONE', #93 ) ;
#340 = VERTEX_POINT ( 'NONE', #87 ) ;
#341 = ORIENTED_EDGE ( 'NONE', *, *, #27, .F. ) ;
#342 = ORIENTED_EDGE ( 'NONE', *, *, #59, .F. ) ;
#343 = VERTEX_POINT ( 'NONE', #111 ) ;
#344 = VERTEX_POINT ( 'NONE', #102 ) ;
#345 = VERTEX_POINT ( 'NONE', #133 ) ;
#346 = VERTEX_POINT ( 'NONE', #106 ) ;
#347 = ORIENTED_EDGE ( 'NONE', *, *, #41, .F. ) ;
#348 = ORIENTED_EDGE ( 'NONE', *, *, #32, .T. ) ;
#349 = ORIENTED_EDGE ( 'NONE', *, *, #64, .F. ) ;
#350 = VERTEX_POINT ( 'NONE', #192 ) ;
#351 = VERTEX_POINT ( 'NONE', #137 ) ;
#352 = EDGE_LOOP ( 'NONE', ( #349, #304, #335, #330, #347 ) ) ;
#353 = VERTEX_POINT ( 'NONE', #135 ) ;
#354 = ORIENTED_EDGE ( 'NONE', *, *, #51, .F. ) ;
ENDSEC;
END-ISO-10303-21;
