ISO-10303-21;
HEADER;
FILE_DESCRIPTION (( 'STEP AP214' ),
    '1' );
FILE_NAME ('107600002Y400A.STEP',
    '2013-02-25T17:25:19',
    ( '' ),
    ( '' ),
    'SwSTEP 2.0',
    'SolidWorks 2012',
    '' );
FILE_SCHEMA (( 'AUTOMOTIVE_DESIGN' ));
ENDSEC;

DATA;
#1 = EDGE_CURVE ( 'NONE', #155, #119, #99, .T. ) ;
#2 = EDGE_CURVE ( 'NONE', #106, #155, #145, .T. ) ;
#3 = EDGE_CURVE ( 'NONE', #106, #147, #98, .T. ) ;
#4 = EDGE_CURVE ( 'NONE', #154, #117, #60, .T. ) ;
#5 = EDGE_CURVE ( 'NONE', #120, #154, #96, .T. ) ;
#6 = EDGE_CURVE ( 'NONE', #157, #116, #95, .T. ) ;
#7 = EDGE_CURVE ( 'NONE', #157, #118, #61, .T. ) ;
#8 = EDGE_CURVE ( 'NONE', #75, #118, #91, .T. ) ;
#9 = EDGE_CURVE ( 'NONE', #116, #75, #90, .T. ) ;
#10 = EDGE_CURVE ( 'NONE', #117, #75, #92, .T. ) ;
#11 = EDGE_CURVE ( 'NONE', #154, #118, #63, .T. ) ;
#12 = EDGE_CURVE ( 'NONE', #117, #154, #88, .T. ) ;
#13 = EDGE_CURVE ( 'NONE', #118, #75, #59, .T. ) ;
#14 = EDGE_CURVE ( 'NONE', #116, #157, #123, .T. ) ;
#15 = EDGE_CURVE ( 'NONE', #120, #159, #126, .T. ) ;
#16 = EDGE_CURVE ( 'NONE', #155, #106, #122, .T. ) ;
#17 = EDGE_CURVE ( 'NONE', #147, #119, #152, .T. ) ;
#18 = EDGE_CURVE ( 'NONE', #159, #120, #136, .T. ) ;
#19 = EDGE_CURVE ( 'NONE', #159, #117, #82, .T. ) ;
#20 = EDGE_CURVE ( 'NONE', #119, #147, #144, .T. ) ;
#21 = AXIS2_PLACEMENT_3D ( 'NONE', #276, #277, #278 ) ;
#22 = AXIS2_PLACEMENT_3D ( 'NONE', #281, #282, #283 ) ;
#23 = AXIS2_PLACEMENT_3D ( 'NONE', #288, #289, #291 ) ;
#24 = AXIS2_PLACEMENT_3D ( 'NONE', #298, #297, #293 ) ;
#25 = AXIS2_PLACEMENT_3D ( 'NONE', #262, #292, #257 ) ;
#26 = AXIS2_PLACEMENT_3D ( 'NONE', #252, #250, #286 ) ;
#27 = AXIS2_PLACEMENT_3D ( 'NONE', #225, #228, #222 ) ;
#28 = AXIS2_PLACEMENT_3D ( 'NONE', #211, #217, #209 ) ;
#29 = AXIS2_PLACEMENT_3D ( 'NONE', #188, #187, #186 ) ;
#30 = AXIS2_PLACEMENT_3D ( 'NONE', #183, #184, #303 ) ;
#31 = AXIS2_PLACEMENT_3D ( 'NONE', #295, #268, #267 ) ;
#32 = STYLED_ITEM ( 'NONE', ( #77 ), #163 ) ;
#33 = PRESENTATION_LAYER_ASSIGNMENT (  '', '', ( #32 ) ) ;
#34 = MECHANICAL_DESIGN_GEOMETRIC_PRESENTATION_REPRESENTATION (  '', ( #32 ), #35 ) ;
#35 =( GEOMETRIC_REPRESENTATION_CONTEXT ( 3 ) GLOBAL_UNCERTAINTY_ASSIGNED_CONTEXT ( ( #165 ) ) GLOBAL_UNIT_ASSIGNED_CONTEXT ( ( #248, #247, #246 ) ) REPRESENTATION_CONTEXT ( 'NONE', 'WORKASPACE' ) );
#36 = AXIS2_PLACEMENT_3D ( 'NONE', #244, #260, #256 ) ;
#37 = AXIS2_PLACEMENT_3D ( 'NONE', #231, #230, #232 ) ;
#38 = AXIS2_PLACEMENT_3D ( 'NONE', #242, #254, #237 ) ;
#39 = AXIS2_PLACEMENT_3D ( 'NONE', #234, #233, #235 ) ;
#40 = AXIS2_PLACEMENT_3D ( 'NONE', #236, #241, #239 ) ;
#41 = AXIS2_PLACEMENT_3D ( 'NONE', #223, #221, #224 ) ;
#42 = AXIS2_PLACEMENT_3D ( 'NONE', #227, #226, #229 ) ;
#43 =( GEOMETRIC_REPRESENTATION_CONTEXT ( 3 ) GLOBAL_UNCERTAINTY_ASSIGNED_CONTEXT ( ( #166 ) ) GLOBAL_UNIT_ASSIGNED_CONTEXT ( ( #204, #203, #202 ) ) REPRESENTATION_CONTEXT ( 'NONE', 'WORKASPACE' ) );
#44 = AXIS2_PLACEMENT_3D ( 'NONE', #219, #218, #220 ) ;
#45 = AXIS2_PLACEMENT_3D ( 'NONE', #215, #213, #216 ) ;
#46 = AXIS2_PLACEMENT_3D ( 'NONE', #210, #212, #205 ) ;
#47 = STYLED_ITEM ( 'NONE', ( #179 ), #58 ) ;
#48 = PRESENTATION_LAYER_ASSIGNMENT (  '', '', ( #47 ) ) ;
#49 = MECHANICAL_DESIGN_GEOMETRIC_PRESENTATION_REPRESENTATION (  '', ( #47 ), #50 ) ;
#50 =( GEOMETRIC_REPRESENTATION_CONTEXT ( 3 ) GLOBAL_UNCERTAINTY_ASSIGNED_CONTEXT ( ( #164 ) ) GLOBAL_UNIT_ASSIGNED_CONTEXT ( ( #193, #192, #273 ) ) REPRESENTATION_CONTEXT ( 'NONE', 'WORKASPACE' ) );
#51 = AXIS2_PLACEMENT_3D ( 'NONE', #206, #201, #214 ) ;
#52 = PRODUCT_DEFINITION ( 'NON CONOSCIUTO', '', #53, #56 ) ;
#53 = PRODUCT_DEFINITION_FORMATION_WITH_SPECIFIED_SOURCE ( 'TUTTO', '', #304, .NOT_KNOWN. ) ;
#54 = PRODUCT_RELATED_PRODUCT_CATEGORY ( 'part', '', ( #304 ) ) ;
#55 = AXIS2_PLACEMENT_3D ( 'NONE', #243, #245, #238 ) ;
#56 = PRODUCT_DEFINITION_CONTEXT ( 'detailed design', #191, 'design' ) ;
#57 = PRODUCT_DEFINITION_SHAPE ( 'NONE', 'NONE',  #52 ) ;
#58 = ADVANCED_BREP_SHAPE_REPRESENTATION ( '107600002Y400A', ( #163, #51 ), #43 ) ;
#59 = CIRCLE ( 'NONE', #26, 9.000000000000001800 ) ;
#60 = CIRCLE ( 'NONE', #22, 9.000000000000001800 ) ;
#61 = LINE ( 'NONE', #287, #62 ) ;
#62 = VECTOR ( 'NONE', #284, 1000.000000000000200 ) ;
#63 = LINE ( 'NONE', #271, #125 ) ;
#64 = FACE_OUTER_BOUND ( 'NONE', #104, .T. ) ;
#65 = ORIENTED_EDGE ( 'NONE', *, *, #16, .T. ) ;
#66 = ORIENTED_EDGE ( 'NONE', *, *, #14, .T. ) ;
#67 = FACE_OUTER_BOUND ( 'NONE', #111, .T. ) ;
#68 = ORIENTED_EDGE ( 'NONE', *, *, #5, .F. ) ;
#69 = ORIENTED_EDGE ( 'NONE', *, *, #1, .F. ) ;
#70 = ORIENTED_EDGE ( 'NONE', *, *, #16, .F. ) ;
#71 = ORIENTED_EDGE ( 'NONE', *, *, #7, .T. ) ;
#72 = ORIENTED_EDGE ( 'NONE', *, *, #2, .T. ) ;
#73 = ORIENTED_EDGE ( 'NONE', *, *, #20, .F. ) ;
#74 = ORIENTED_EDGE ( 'NONE', *, *, #8, .F. ) ;
#75 = VERTEX_POINT ( 'NONE', #296 ) ;
#76 = FACE_BOUND ( 'NONE', #103, .T. ) ;
#77 = PRESENTATION_STYLE_ASSIGNMENT (( #249 ) ) ;
#78 = SURFACE_STYLE_FILL_AREA ( #253 ) ;
#79 = COLOUR_RGB ( '',0.7921568627450980000, 0.8196078431372548800, 0.9333333333333333500 ) ;
#80 = FACE_OUTER_BOUND ( 'NONE', #101, .T. ) ;
#81 = VECTOR ( 'NONE', #190, 1000.000000000000200 ) ;
#82 = LINE ( 'NONE', #199, #81 ) ;
#83 = ORIENTED_EDGE ( 'NONE', *, *, #11, .T. ) ;
#84 = ORIENTED_EDGE ( 'NONE', *, *, #9, .T. ) ;
#85 = FACE_OUTER_BOUND ( 'NONE', #110, .T. ) ;
#86 = ORIENTED_EDGE ( 'NONE', *, *, #17, .F. ) ;
#87 = VECTOR ( 'NONE', #294, 1000.000000000000000 ) ;
#88 = CIRCLE ( 'NONE', #25, 9.000000000000001800 ) ;
#89 = VECTOR ( 'NONE', #285, 1000.000000000000200 ) ;
#90 = LINE ( 'NONE', #290, #89 ) ;
#91 = CIRCLE ( 'NONE', #24, 9.000000000000001800 ) ;
#92 = LINE ( 'NONE', #299, #87 ) ;
#93 = VECTOR ( 'NONE', #279, 1000.000000000000200 ) ;
#94 = VECTOR ( 'NONE', #274, 1000.000000000000000 ) ;
#95 = CIRCLE ( 'NONE', #23, 7.799999999999999800 ) ;
#96 = LINE ( 'NONE', #280, #93 ) ;
#97 = VECTOR ( 'NONE', #270, 1000.000000000000000 ) ;
#98 = LINE ( 'NONE', #275, #94 ) ;
#99 = LINE ( 'NONE', #272, #97 ) ;
#100 = ORIENTED_EDGE ( 'NONE', *, *, #3, .T. ) ;
#101 = EDGE_LOOP ( 'NONE', ( #133, #131, #84, #150 ) ) ;
#102 = ORIENTED_EDGE ( 'NONE', *, *, #17, .T. ) ;
#103 = EDGE_LOOP ( 'NONE', ( #86, #73 ) ) ;
#104 = EDGE_LOOP ( 'NONE', ( #160, #153, #83, #146 ) ) ;
#105 = EDGE_LOOP ( 'NONE', ( #129, #137, #134, #139 ) ) ;
#106 = VERTEX_POINT ( 'NONE', #266 ) ;
#107 = EDGE_LOOP ( 'NONE', ( #162, #130, #149, #68 ) ) ;
#108 = ORIENTED_EDGE ( 'NONE', *, *, #20, .T. ) ;
#109 = EDGE_LOOP ( 'NONE', ( #69, #65, #100, #102 ) ) ;
#110 = EDGE_LOOP ( 'NONE', ( #156, #143 ) ) ;
#111 = EDGE_LOOP ( 'NONE', ( #151, #161, #121, #158 ) ) ;
#112 = EDGE_LOOP ( 'NONE', ( #141, #70 ) ) ;
#113 = EDGE_LOOP ( 'NONE', ( #66, #128 ) ) ;
#114 = EDGE_LOOP ( 'NONE', ( #135, #71, #74, #142 ) ) ;
#115 = EDGE_LOOP ( 'NONE', ( #72, #138, #108, #148 ) ) ;
#116 = VERTEX_POINT ( 'NONE', #301 ) ;
#117 = VERTEX_POINT ( 'NONE', #300 ) ;
#118 = VERTEX_POINT ( 'NONE', #185 ) ;
#119 = VERTEX_POINT ( 'NONE', #264 ) ;
#120 = VERTEX_POINT ( 'NONE', #302 ) ;
#121 = ORIENTED_EDGE ( 'NONE', *, *, #5, .T. ) ;
#122 = CIRCLE ( 'NONE', #28, 7.500000000000000000 ) ;
#123 = CIRCLE ( 'NONE', #55, 7.799999999999999800 ) ;
#124 = CONICAL_SURFACE ( 'NONE', #36, 7.799999999999999800, 0.3141592653279692300 ) ;
#125 = VECTOR ( 'NONE', #269, 1000.000000000000000 ) ;
#126 = CIRCLE ( 'NONE', #27, 7.800000000000033600 ) ;
#127 = FACE_OUTER_BOUND ( 'NONE', #105, .T. ) ;
#128 = ORIENTED_EDGE ( 'NONE', *, *, #6, .T. ) ;
#129 = ORIENTED_EDGE ( 'NONE', *, *, #4, .T. ) ;
#130 = ORIENTED_EDGE ( 'NONE', *, *, #19, .T. ) ;
#131 = ORIENTED_EDGE ( 'NONE', *, *, #14, .F. ) ;
#132 = CLOSED_SHELL ( 'NONE', ( #313, #309, #311, #310, #312, #306, #314, #308, #305, #307 ) ) ;
#133 = ORIENTED_EDGE ( 'NONE', *, *, #7, .F. ) ;
#134 = ORIENTED_EDGE ( 'NONE', *, *, #8, .T. ) ;
#135 = ORIENTED_EDGE ( 'NONE', *, *, #6, .F. ) ;
#136 = CIRCLE ( 'NONE', #30, 7.800000000000033600 ) ;
#137 = ORIENTED_EDGE ( 'NONE', *, *, #10, .T. ) ;
#138 = ORIENTED_EDGE ( 'NONE', *, *, #1, .T. ) ;
#139 = ORIENTED_EDGE ( 'NONE', *, *, #11, .F. ) ;
#140 = FACE_OUTER_BOUND ( 'NONE', #107, .T. ) ;
#141 = ORIENTED_EDGE ( 'NONE', *, *, #2, .F. ) ;
#142 = ORIENTED_EDGE ( 'NONE', *, *, #9, .F. ) ;
#143 = ORIENTED_EDGE ( 'NONE', *, *, #18, .T. ) ;
#144 = CIRCLE ( 'NONE', #31, 7.500000000000000000 ) ;
#145 = CIRCLE ( 'NONE', #21, 7.500000000000000000 ) ;
#146 = ORIENTED_EDGE ( 'NONE', *, *, #13, .T. ) ;
#147 = VERTEX_POINT ( 'NONE', #263 ) ;
#148 = ORIENTED_EDGE ( 'NONE', *, *, #3, .F. ) ;
#149 = ORIENTED_EDGE ( 'NONE', *, *, #4, .F. ) ;
#150 = ORIENTED_EDGE ( 'NONE', *, *, #13, .F. ) ;
#151 = ORIENTED_EDGE ( 'NONE', *, *, #19, .F. ) ;
#152 = CIRCLE ( 'NONE', #29, 7.500000000000000000 ) ;
#153 = ORIENTED_EDGE ( 'NONE', *, *, #12, .T. ) ;
#154 = VERTEX_POINT ( 'NONE', #258 ) ;
#155 = VERTEX_POINT ( 'NONE', #261 ) ;
#156 = ORIENTED_EDGE ( 'NONE', *, *, #15, .T. ) ;
#157 = VERTEX_POINT ( 'NONE', #265 ) ;
#158 = ORIENTED_EDGE ( 'NONE', *, *, #12, .F. ) ;
#159 = VERTEX_POINT ( 'NONE', #259 ) ;
#160 = ORIENTED_EDGE ( 'NONE', *, *, #10, .F. ) ;
#161 = ORIENTED_EDGE ( 'NONE', *, *, #15, .F. ) ;
#162 = ORIENTED_EDGE ( 'NONE', *, *, #18, .F. ) ;
#163 = MANIFOLD_SOLID_BREP ( 'Importato1', #132 ) ;
#164 = UNCERTAINTY_MEASURE_WITH_UNIT (LENGTH_MEASURE( 1.000000000000000100E-005 ), #193, 'distance_accuracy_value', 'NONE');
#165 = UNCERTAINTY_MEASURE_WITH_UNIT (LENGTH_MEASURE( 1.000000000000000100E-005 ), #248, 'distance_accuracy_value', 'NONE');
#166 = UNCERTAINTY_MEASURE_WITH_UNIT (LENGTH_MEASURE( 1.000000000000000100E-005 ), #204, 'distance_accuracy_value', 'NONE');
#167 = CONICAL_SURFACE ( 'NONE', #41, 7.799999999999999800, 0.3141592653279692300 ) ;
#168 = CYLINDRICAL_SURFACE ( 'NONE', #45, 7.500000000000000000 ) ;
#169 = CYLINDRICAL_SURFACE ( 'NONE', #42, 9.000000000000001800 ) ;
#170 = FACE_OUTER_BOUND ( 'NONE', #113, .T. ) ;
#171 = SURFACE_STYLE_FILL_AREA ( #196 ) ;
#172 = FACE_OUTER_BOUND ( 'NONE', #109, .T. ) ;
#173 = CONICAL_SURFACE ( 'NONE', #37, 7.799999999999999800, 0.3141592653279692300 ) ;
#174 = CYLINDRICAL_SURFACE ( 'NONE', #44, 7.500000000000000000 ) ;
#175 = SHAPE_DEFINITION_REPRESENTATION ( #57, #58 ) ;
#176 = FACE_OUTER_BOUND ( 'NONE', #115, .T. ) ;
#177 = CYLINDRICAL_SURFACE ( 'NONE', #40, 9.000000000000001800 ) ;
#178 = FACE_OUTER_BOUND ( 'NONE', #114, .T. ) ;
#179 = PRESENTATION_STYLE_ASSIGNMENT (( #194 ) ) ;
#180 = COLOUR_RGB ( '',0.7921568627450980000, 0.8196078431372548800, 0.9333333333333333500 ) ;
#181 = CONICAL_SURFACE ( 'NONE', #39, 7.799999999999999800, 0.3141592653279692300 ) ;
#182 = FACE_BOUND ( 'NONE', #112, .T. ) ;
#183 = CARTESIAN_POINT ( 'NONE',  ( 0.0000000000000000000, 8.999999999999897000, 0.0000000000000000000 ) ) ;
#184 = DIRECTION ( 'NONE',  ( -0.0000000000000000000, 1.000000000000000000, -0.0000000000000000000 ) ) ;
#185 = CARTESIAN_POINT ( 'NONE',  ( 0.0000000000000000000, 3.693220244999961800, -9.000000000000001800 ) ) ;
#186 = DIRECTION ( 'NONE',  ( 0.0000000000000000000, 0.0000000000000000000, 1.000000000000000000 ) ) ;
#187 = DIRECTION ( 'NONE',  ( 0.0000000000000000000, 1.000000000000000000, 0.0000000000000000000 ) ) ;
#188 = CARTESIAN_POINT ( 'NONE',  ( 0.0000000000000000000, 9.000000000000001800, 0.0000000000000000000 ) ) ;
#189 = APPLICATION_PROTOCOL_DEFINITION ( 'draft international standard', 'automotive_design', 1998, #191 ) ;
#190 = DIRECTION ( 'NONE',  ( 3.784366730072971800E-017, -0.9510565163047362000, 0.3090169943454549900 ) ) ;
#191 = APPLICATION_CONTEXT ( 'automotive_design' ) ;
#192 =( NAMED_UNIT ( * ) PLANE_ANGLE_UNIT ( ) SI_UNIT ( $, .RADIAN. ) );
#193 =( LENGTH_UNIT ( ) NAMED_UNIT ( * ) SI_UNIT ( .MILLI., .METRE. ) );
#194 = SURFACE_STYLE_USAGE ( .BOTH. , #195 ) ;
#195 = SURFACE_SIDE_STYLE ('',( #171 ) ) ;
#196 = FILL_AREA_STYLE ('',( #197 ) ) ;
#197 = FILL_AREA_STYLE_COLOUR ( '', #180 ) ;
#198 = APPLICATION_CONTEXT ( 'automotive_design' ) ;
#199 = CARTESIAN_POINT ( 'NONE',  ( 9.552245033349354600E-016, 9.000000000000001800, 7.799999999999999800 ) ) ;
#200 = APPLICATION_PROTOCOL_DEFINITION ( 'draft international standard', 'automotive_design', 1998, #198 ) ;
#201 = DIRECTION ( 'NONE',  ( 0.0000000000000000000, 0.0000000000000000000, 1.000000000000000000 ) ) ;
#202 =( NAMED_UNIT ( * ) SI_UNIT ( $, .STERADIAN. ) SOLID_ANGLE_UNIT ( ) );
#203 =( NAMED_UNIT ( * ) PLANE_ANGLE_UNIT ( ) SI_UNIT ( $, .RADIAN. ) );
#204 =( LENGTH_UNIT ( ) NAMED_UNIT ( * ) SI_UNIT ( .MILLI., .METRE. ) );
#205 = DIRECTION ( 'NONE',  ( 0.0000000000000000000, 0.0000000000000000000, -1.000000000000000000 ) ) ;
#206 = CARTESIAN_POINT ( 'NONE',  ( 0.0000000000000000000, 0.0000000000000000000, 0.0000000000000000000 ) ) ;
#207 = PLANE ( 'NONE',  #46 ) ;
#208 = PRODUCT_CONTEXT ( 'NONE', #198, 'mechanical' ) ;
#209 = DIRECTION ( 'NONE',  ( 0.0000000000000000000, 0.0000000000000000000, 1.000000000000000000 ) ) ;
#210 = CARTESIAN_POINT ( 'NONE',  ( -7.893600000000001100, 0.0000000000000000000, 7.893600000000001100 ) ) ;
#211 = CARTESIAN_POINT ( 'NONE',  ( 0.0000000000000000000, 0.0000000000000000000, 0.0000000000000000000 ) ) ;
#212 = DIRECTION ( 'NONE',  ( 0.0000000000000000000, -1.000000000000000000, 0.0000000000000000000 ) ) ;
#213 = DIRECTION ( 'NONE',  ( 0.0000000000000000000, 1.000000000000000000, 0.0000000000000000000 ) ) ;
#214 = DIRECTION ( 'NONE',  ( 1.000000000000000000, 0.0000000000000000000, 0.0000000000000000000 ) ) ;
#215 = CARTESIAN_POINT ( 'NONE',  ( 0.0000000000000000000, 0.0000000000000000000, 0.0000000000000000000 ) ) ;
#216 = DIRECTION ( 'NONE',  ( 0.0000000000000000000, 0.0000000000000000000, 1.000000000000000000 ) ) ;
#217 = DIRECTION ( 'NONE',  ( -0.0000000000000000000, -1.000000000000000000, -0.0000000000000000000 ) ) ;
#218 = DIRECTION ( 'NONE',  ( 0.0000000000000000000, 1.000000000000000000, 0.0000000000000000000 ) ) ;
#219 = CARTESIAN_POINT ( 'NONE',  ( 0.0000000000000000000, 0.0000000000000000000, 0.0000000000000000000 ) ) ;
#220 = DIRECTION ( 'NONE',  ( 0.0000000000000000000, 0.0000000000000000000, 1.000000000000000000 ) ) ;
#221 = DIRECTION ( 'NONE',  ( -0.0000000000000000000, 1.000000000000000000, 0.0000000000000000000 ) ) ;
#222 = DIRECTION ( 'NONE',  ( 0.0000000000000000000, 0.0000000000000000000, -1.000000000000000000 ) ) ;
#223 = CARTESIAN_POINT ( 'NONE',  ( 0.0000000000000000000, 0.0000000000000000000, 0.0000000000000000000 ) ) ;
#224 = DIRECTION ( 'NONE',  ( 0.0000000000000000000, 0.0000000000000000000, 1.000000000000000000 ) ) ;
#225 = CARTESIAN_POINT ( 'NONE',  ( 0.0000000000000000000, 8.999999999999897000, 0.0000000000000000000 ) ) ;
#226 = DIRECTION ( 'NONE',  ( 0.0000000000000000000, -1.000000000000000000, 0.0000000000000000000 ) ) ;
#227 = CARTESIAN_POINT ( 'NONE',  ( 0.0000000000000000000, 5.306779755000000900, 0.0000000000000000000 ) ) ;
#228 = DIRECTION ( 'NONE',  ( -0.0000000000000000000, 1.000000000000000000, -0.0000000000000000000 ) ) ;
#229 = DIRECTION ( 'NONE',  ( 0.0000000000000000000, 0.0000000000000000000, -1.000000000000000000 ) ) ;
#230 = DIRECTION ( 'NONE',  ( 0.0000000000000000000, -1.000000000000000000, 0.0000000000000000000 ) ) ;
#231 = CARTESIAN_POINT ( 'NONE',  ( 0.0000000000000000000, 9.000000000000001800, 0.0000000000000000000 ) ) ;
#232 = DIRECTION ( 'NONE',  ( 0.0000000000000000000, 0.0000000000000000000, -1.000000000000000000 ) ) ;
#233 = DIRECTION ( 'NONE',  ( 0.0000000000000000000, -1.000000000000000000, 0.0000000000000000000 ) ) ;
#234 = CARTESIAN_POINT ( 'NONE',  ( 0.0000000000000000000, 9.000000000000001800, 0.0000000000000000000 ) ) ;
#235 = DIRECTION ( 'NONE',  ( 0.0000000000000000000, 0.0000000000000000000, -1.000000000000000000 ) ) ;
#236 = CARTESIAN_POINT ( 'NONE',  ( 0.0000000000000000000, 5.306779755000000900, 0.0000000000000000000 ) ) ;
#237 = DIRECTION ( 'NONE',  ( 0.0000000000000000000, 0.0000000000000000000, 1.000000000000000000 ) ) ;
#238 = DIRECTION ( 'NONE',  ( 0.0000000000000000000, 0.0000000000000000000, 1.000000000000000000 ) ) ;
#239 = DIRECTION ( 'NONE',  ( 0.0000000000000000000, 0.0000000000000000000, -1.000000000000000000 ) ) ;
#240 = PLANE ( 'NONE',  #38 ) ;
#241 = DIRECTION ( 'NONE',  ( 0.0000000000000000000, -1.000000000000000000, 0.0000000000000000000 ) ) ;
#242 = CARTESIAN_POINT ( 'NONE',  ( -7.893600000000001100, 9.000000000000001800, -7.893600000000001100 ) ) ;
#243 = CARTESIAN_POINT ( 'NONE',  ( 0.0000000000000000000, 0.0000000000000000000, 0.0000000000000000000 ) ) ;
#244 = CARTESIAN_POINT ( 'NONE',  ( 0.0000000000000000000, 0.0000000000000000000, 0.0000000000000000000 ) ) ;
#245 = DIRECTION ( 'NONE',  ( 0.0000000000000000000, -1.000000000000000000, -0.0000000000000000000 ) ) ;
#246 =( NAMED_UNIT ( * ) SI_UNIT ( $, .STERADIAN. ) SOLID_ANGLE_UNIT ( ) );
#247 =( NAMED_UNIT ( * ) PLANE_ANGLE_UNIT ( ) SI_UNIT ( $, .RADIAN. ) );
#248 =( LENGTH_UNIT ( ) NAMED_UNIT ( * ) SI_UNIT ( .MILLI., .METRE. ) );
#249 = SURFACE_STYLE_USAGE ( .BOTH. , #251 ) ;
#250 = DIRECTION ( 'NONE',  ( 0.0000000000000000000, 1.000000000000000000, 0.0000000000000000000 ) ) ;
#251 = SURFACE_SIDE_STYLE ('',( #78 ) ) ;
#252 = CARTESIAN_POINT ( 'NONE',  ( 0.0000000000000000000, 3.693220244999961800, 0.0000000000000000000 ) ) ;
#253 = FILL_AREA_STYLE ('',( #255 ) ) ;
#254 = DIRECTION ( 'NONE',  ( 0.0000000000000000000, 1.000000000000000000, 0.0000000000000000000 ) ) ;
#255 = FILL_AREA_STYLE_COLOUR ( '', #79 ) ;
#256 = DIRECTION ( 'NONE',  ( 0.0000000000000000000, 0.0000000000000000000, 1.000000000000000000 ) ) ;
#257 = DIRECTION ( 'NONE',  ( 0.0000000000000000000, 7.324388009679851300E-015, -1.000000000000000000 ) ) ;
#258 = CARTESIAN_POINT ( 'NONE',  ( 0.0000000000000000000, 5.306779755000000900, -9.000000000000001800 ) ) ;
#259 = CARTESIAN_POINT ( 'NONE',  ( 1.028703311283779000E-015, 8.999999999999897000, 7.800000000000033600 ) ) ;
#260 = DIRECTION ( 'NONE',  ( -0.0000000000000000000, 1.000000000000000000, 0.0000000000000000000 ) ) ;
#261 = CARTESIAN_POINT ( 'NONE',  ( 9.184850993605147900E-016, 0.0000000000000000000, -7.500000000000000000 ) ) ;
#262 = CARTESIAN_POINT ( 'NONE',  ( 0.0000000000000000000, 5.306779754999935200, 0.0000000000000000000 ) ) ;
#263 = CARTESIAN_POINT ( 'NONE',  ( 0.0000000000000000000, 9.000000000000001800, 7.500000000000000000 ) ) ;
#264 = CARTESIAN_POINT ( 'NONE',  ( 9.184850993605147900E-016, 9.000000000000001800, -7.500000000000000000 ) ) ;
#265 = CARTESIAN_POINT ( 'NONE',  ( 1.028703311283776600E-015, 0.0000000000000000000, -7.799999999999999800 ) ) ;
#266 = CARTESIAN_POINT ( 'NONE',  ( 0.0000000000000000000, 0.0000000000000000000, 7.500000000000000000 ) ) ;
#267 = DIRECTION ( 'NONE',  ( 0.0000000000000000000, 0.0000000000000000000, 1.000000000000000000 ) ) ;
#268 = DIRECTION ( 'NONE',  ( 0.0000000000000000000, 1.000000000000000000, 0.0000000000000000000 ) ) ;
#269 = DIRECTION ( 'NONE',  ( 0.0000000000000000000, -1.000000000000000000, 0.0000000000000000000 ) ) ;
#270 = DIRECTION ( 'NONE',  ( 0.0000000000000000000, 1.000000000000000000, 0.0000000000000000000 ) ) ;
#271 = CARTESIAN_POINT ( 'NONE',  ( 0.0000000000000000000, 5.306779755000000900, -9.000000000000001800 ) ) ;
#272 = CARTESIAN_POINT ( 'NONE',  ( 9.184850993605147900E-016, 0.0000000000000000000, -7.500000000000000000 ) ) ;
#273 =( NAMED_UNIT ( * ) SI_UNIT ( $, .STERADIAN. ) SOLID_ANGLE_UNIT ( ) );
#274 = DIRECTION ( 'NONE',  ( 0.0000000000000000000, 1.000000000000000000, 0.0000000000000000000 ) ) ;
#275 = CARTESIAN_POINT ( 'NONE',  ( 0.0000000000000000000, 0.0000000000000000000, 7.500000000000000000 ) ) ;
#276 = CARTESIAN_POINT ( 'NONE',  ( 0.0000000000000000000, 0.0000000000000000000, 0.0000000000000000000 ) ) ;
#277 = DIRECTION ( 'NONE',  ( -0.0000000000000000000, -1.000000000000000000, -0.0000000000000000000 ) ) ;
#278 = DIRECTION ( 'NONE',  ( 0.0000000000000000000, 0.0000000000000000000, 1.000000000000000000 ) ) ;
#279 = DIRECTION ( 'NONE',  ( 0.0000000000000000000, -0.9510565163047362000, -0.3090169943454549900 ) ) ;
#280 = CARTESIAN_POINT ( 'NONE',  ( 0.0000000000000000000, 9.000000000000001800, -7.799999999999999800 ) ) ;
#281 = CARTESIAN_POINT ( 'NONE',  ( 0.0000000000000000000, 5.306779754999935200, 0.0000000000000000000 ) ) ;
#282 = DIRECTION ( 'NONE',  ( 0.0000000000000000000, -1.000000000000000000, 0.0000000000000000000 ) ) ;
#283 = DIRECTION ( 'NONE',  ( 0.0000000000000000000, 7.324388009679851300E-015, -1.000000000000000000 ) ) ;
#284 = DIRECTION ( 'NONE',  ( 3.784366730072971800E-017, 0.9510565163047362000, -0.3090169943454549900 ) ) ;
#285 = DIRECTION ( 'NONE',  ( 0.0000000000000000000, 0.9510565163047362000, 0.3090169943454549900 ) ) ;
#286 = DIRECTION ( 'NONE',  ( 0.0000000000000000000, 4.288621926720438900E-015, 1.000000000000000000 ) ) ;
#287 = CARTESIAN_POINT ( 'NONE',  ( 9.552245033349354600E-016, 0.0000000000000000000, -7.799999999999999800 ) ) ;
#288 = CARTESIAN_POINT ( 'NONE',  ( 0.0000000000000000000, 0.0000000000000000000, 0.0000000000000000000 ) ) ;
#289 = DIRECTION ( 'NONE',  ( 0.0000000000000000000, -1.000000000000000000, -0.0000000000000000000 ) ) ;
#290 = CARTESIAN_POINT ( 'NONE',  ( 0.0000000000000000000, 0.0000000000000000000, 7.799999999999999800 ) ) ;
#291 = DIRECTION ( 'NONE',  ( 0.0000000000000000000, 0.0000000000000000000, 1.000000000000000000 ) ) ;
#292 = DIRECTION ( 'NONE',  ( 0.0000000000000000000, -1.000000000000000000, 0.0000000000000000000 ) ) ;
#293 = DIRECTION ( 'NONE',  ( 0.0000000000000000000, 4.288621926720438900E-015, 1.000000000000000000 ) ) ;
#294 = DIRECTION ( 'NONE',  ( 0.0000000000000000000, -1.000000000000000000, 0.0000000000000000000 ) ) ;
#295 = CARTESIAN_POINT ( 'NONE',  ( 0.0000000000000000000, 9.000000000000001800, 0.0000000000000000000 ) ) ;
#296 = CARTESIAN_POINT ( 'NONE',  ( 1.102182119232617900E-015, 3.693220244999961800, 9.000000000000001800 ) ) ;
#297 = DIRECTION ( 'NONE',  ( 0.0000000000000000000, 1.000000000000000000, 0.0000000000000000000 ) ) ;
#298 = CARTESIAN_POINT ( 'NONE',  ( 0.0000000000000000000, 3.693220244999961800, 0.0000000000000000000 ) ) ;
#299 = CARTESIAN_POINT ( 'NONE',  ( 1.102182119232617900E-015, 5.306779755000000900, 9.000000000000001800 ) ) ;
#300 = CARTESIAN_POINT ( 'NONE',  ( 1.102182119232617900E-015, 5.306779754999935200, 9.000000000000001800 ) ) ;
#301 = CARTESIAN_POINT ( 'NONE',  ( 0.0000000000000000000, 0.0000000000000000000, 7.799999999999999800 ) ) ;
#302 = CARTESIAN_POINT ( 'NONE',  ( 0.0000000000000000000, 8.999999999999897000, -7.800000000000033600 ) ) ;
#303 = DIRECTION ( 'NONE',  ( 0.0000000000000000000, 0.0000000000000000000, -1.000000000000000000 ) ) ;
#304 = PRODUCT ( '107600002Y400A', '107600002Y400A', '', ( #208 ) ) ;
#305 = ADVANCED_FACE ( 'NONE', ( #80 ), #124, .T. ) ;
#306 = ADVANCED_FACE ( 'NONE', ( #76, #85 ), #240, .T. ) ;
#307 = ADVANCED_FACE ( 'NONE', ( #64 ), #177, .T. ) ;
#308 = ADVANCED_FACE ( 'NONE', ( #67 ), #181, .T. ) ;
#309 = ADVANCED_FACE ( 'NONE', ( #140 ), #173, .T. ) ;
#310 = ADVANCED_FACE ( 'NONE', ( #127 ), #169, .T. ) ;
#311 = ADVANCED_FACE ( 'NONE', ( #178 ), #167, .T. ) ;
#312 = ADVANCED_FACE ( 'NONE', ( #172 ), #174, .F. ) ;
#313 = ADVANCED_FACE ( 'NONE', ( #176 ), #168, .F. ) ;
#314 = ADVANCED_FACE ( 'NONE', ( #182, #170 ), #207, .T. ) ;
ENDSEC;
END-ISO-10303-21;
