ISO-10303-21;
HEADER;
FILE_DESCRIPTION (( 'STEP AP214' ),
    '1' );
FILE_NAME ('107400002Y400A.STEP',
    '2013-02-25T17:21:21',
    ( '' ),
    ( '' ),
    'SwSTEP 2.0',
    'SolidWorks 2012',
    '' );
FILE_SCHEMA (( 'AUTOMOTIVE_DESIGN' ));
ENDSEC;

DATA;
#1 = EDGE_CURVE ( 'NONE', #276, #267, #232, .T. ) ;
#2 = PRESENTATION_LAYER_ASSIGNMENT (  '', '', ( #3 ) ) ;
#3 = STYLED_ITEM ( 'NONE', ( #214 ), #183 ) ;
#4 = PRODUCT_DEFINITION ( 'NON CONOSCIUTO', '', #55, #178 ) ;
#5 = AXIS2_PLACEMENT_3D ( 'NONE', #134, #116, #144 ) ;
#6 = AXIS2_PLACEMENT_3D ( 'NONE', #65, #66, #67 ) ;
#7 = STYLED_ITEM ( 'NONE', ( #262 ), #182 ) ;
#8 =( GEOMETRIC_REPRESENTATION_CONTEXT ( 3 ) GLOBAL_UNCERTAINTY_ASSIGNED_CONTEXT ( ( #181 ) ) GLOBAL_UNIT_ASSIGNED_CONTEXT ( ( #71, #72, #73 ) ) REPRESENTATION_CONTEXT ( 'NONE', 'WORKASPACE' ) );
#9 = AXIS2_PLACEMENT_3D ( 'NONE', #75, #76, #62 ) ;
#10 = AXIS2_PLACEMENT_3D ( 'NONE', #74, #59, #64 ) ;
#11 = AXIS2_PLACEMENT_3D ( 'NONE', #85, #86, #84 ) ;
#12 = AXIS2_PLACEMENT_3D ( 'NONE', #78, #80, #77 ) ;
#13 = AXIS2_PLACEMENT_3D ( 'NONE', #82, #83, #81 ) ;
#14 = AXIS2_PLACEMENT_3D ( 'NONE', #97, #93, #95 ) ;
#15 =( GEOMETRIC_REPRESENTATION_CONTEXT ( 3 ) GLOBAL_UNCERTAINTY_ASSIGNED_CONTEXT ( ( #179 ) ) GLOBAL_UNIT_ASSIGNED_CONTEXT ( ( #136, #141, #101 ) ) REPRESENTATION_CONTEXT ( 'NONE', 'WORKASPACE' ) );
#16 = AXIS2_PLACEMENT_3D ( 'NONE', #92, #90, #96 ) ;
#17 = AXIS2_PLACEMENT_3D ( 'NONE', #106, #108, #105 ) ;
#18 = EDGE_CURVE ( 'NONE', #272, #286, #279, .T. ) ;
#19 = EDGE_CURVE ( 'NONE', #294, #292, #230, .T. ) ;
#20 = EDGE_CURVE ( 'NONE', #292, #267, #233, .T. ) ;
#21 = EDGE_CURVE ( 'NONE', #301, #293, #236, .T. ) ;
#22 = EDGE_CURVE ( 'NONE', #272, #293, #235, .T. ) ;
#23 = EDGE_CURVE ( 'NONE', #286, #301, #238, .T. ) ;
#24 = EDGE_CURVE ( 'NONE', #277, #266, #240, .T. ) ;
#25 = EDGE_CURVE ( 'NONE', #277, #275, #241, .T. ) ;
#26 = EDGE_CURVE ( 'NONE', #301, #266, #242, .T. ) ;
#27 = EDGE_CURVE ( 'NONE', #266, #274, #246, .T. ) ;
#28 = EDGE_CURVE ( 'NONE', #293, #301, #248, .T. ) ;
#29 = EDGE_CURVE ( 'NONE', #293, #274, #249, .T. ) ;
#30 = EDGE_CURVE ( 'NONE', #276, #294, #250, .T. ) ;
#31 = EDGE_CURVE ( 'NONE', #274, #266, #252, .T. ) ;
#32 = AXIS2_PLACEMENT_3D ( 'NONE', #100, #110, #99 ) ;
#33 = EDGE_CURVE ( 'NONE', #294, #276, #253, .T. ) ;
#34 = EDGE_CURVE ( 'NONE', #267, #292, #254, .T. ) ;
#35 = AXIS2_PLACEMENT_3D ( 'NONE', #138, #139, #140 ) ;
#36 = AXIS2_PLACEMENT_3D ( 'NONE', #143, #145, #147 ) ;
#37 = AXIS2_PLACEMENT_3D ( 'NONE', #150, #151, #152 ) ;
#38 = EDGE_CURVE ( 'NONE', #286, #272, #255, .T. ) ;
#39 = AXIS2_PLACEMENT_3D ( 'NONE', #168, #169, #170 ) ;
#40 = AXIS2_PLACEMENT_3D ( 'NONE', #160, #161, #162 ) ;
#41 = AXIS2_PLACEMENT_3D ( 'NONE', #174, #175, #176 ) ;
#42 = AXIS2_PLACEMENT_3D ( 'NONE', #171, #172, #173 ) ;
#43 = AXIS2_PLACEMENT_3D ( 'NONE', #163, #164, #165 ) ;
#44 = MECHANICAL_DESIGN_GEOMETRIC_PRESENTATION_REPRESENTATION (  '', ( #7 ), #8 ) ;
#45 = AXIS2_PLACEMENT_3D ( 'NONE', #88, #87, #91 ) ;
#46 = AXIS2_PLACEMENT_3D ( 'NONE', #98, #57, #58 ) ;
#47 = PRESENTATION_LAYER_ASSIGNMENT (  '', '', ( #7 ) ) ;
#48 = EDGE_CURVE ( 'NONE', #275, #274, #256, .T. ) ;
#49 = AXIS2_PLACEMENT_3D ( 'NONE', #60, #61, #63 ) ;
#50 = AXIS2_PLACEMENT_3D ( 'NONE', #121, #122, #156 ) ;
#51 =( GEOMETRIC_REPRESENTATION_CONTEXT ( 3 ) GLOBAL_UNCERTAINTY_ASSIGNED_CONTEXT ( ( #180 ) ) GLOBAL_UNIT_ASSIGNED_CONTEXT ( ( #113, #118, #120 ) ) REPRESENTATION_CONTEXT ( 'NONE', 'WORKASPACE' ) );
#52 = EDGE_CURVE ( 'NONE', #275, #277, #245, .T. ) ;
#53 = MECHANICAL_DESIGN_GEOMETRIC_PRESENTATION_REPRESENTATION (  '', ( #3 ), #51 ) ;
#54 = PRODUCT_RELATED_PRODUCT_CATEGORY ( 'part', '', ( #184 ) ) ;
#55 = PRODUCT_DEFINITION_FORMATION_WITH_SPECIFIED_SOURCE ( 'TUTTO', '', #184, .NOT_KNOWN. ) ;
#56 = FILL_AREA_STYLE_COLOUR ( '', #257 ) ;
#57 = DIRECTION ( 'NONE',  ( 0.0000000000000000000, 1.000000000000000000, 0.0000000000000000000 ) ) ;
#58 = DIRECTION ( 'NONE',  ( 0.0000000000000000000, 0.0000000000000000000, 1.000000000000000000 ) ) ;
#59 = DIRECTION ( 'NONE',  ( -0.0000000000000000000, 1.000000000000000000, 0.0000000000000000000 ) ) ;
#60 = CARTESIAN_POINT ( 'NONE',  ( 0.0000000000000000000, 9.000000000000007100, 0.0000000000000000000 ) ) ;
#61 = DIRECTION ( 'NONE',  ( -0.0000000000000000000, 1.000000000000000000, -0.0000000000000000000 ) ) ;
#62 = DIRECTION ( 'NONE',  ( 0.0000000000000000000, 0.0000000000000000000, -1.000000000000000000 ) ) ;
#63 = DIRECTION ( 'NONE',  ( 0.0000000000000000000, 0.0000000000000000000, -1.000000000000000000 ) ) ;
#64 = DIRECTION ( 'NONE',  ( 0.0000000000000000000, 0.0000000000000000000, 1.000000000000000000 ) ) ;
#65 = CARTESIAN_POINT ( 'NONE',  ( 0.0000000000000000000, 0.0000000000000000000, 0.0000000000000000000 ) ) ;
#66 = DIRECTION ( 'NONE',  ( 0.0000000000000000000, -1.000000000000000000, -0.0000000000000000000 ) ) ;
#67 = DIRECTION ( 'NONE',  ( 0.0000000000000000000, 0.0000000000000000000, 1.000000000000000000 ) ) ;
#68 = SURFACE_SIDE_STYLE ('',( #261 ) ) ;
#69 = SURFACE_STYLE_USAGE ( .BOTH. , #68 ) ;
#70 = FILL_AREA_STYLE ('',( #56 ) ) ;
#71 =( LENGTH_UNIT ( ) NAMED_UNIT ( * ) SI_UNIT ( .MILLI., .METRE. ) );
#72 =( NAMED_UNIT ( * ) PLANE_ANGLE_UNIT ( ) SI_UNIT ( $, .RADIAN. ) );
#73 =( NAMED_UNIT ( * ) SI_UNIT ( $, .STERADIAN. ) SOLID_ANGLE_UNIT ( ) );
#74 = CARTESIAN_POINT ( 'NONE',  ( 0.0000000000000000000, 0.0000000000000000000, 0.0000000000000000000 ) ) ;
#75 = CARTESIAN_POINT ( 'NONE',  ( 0.0000000000000000000, 9.000000000000001800, 0.0000000000000000000 ) ) ;
#76 = DIRECTION ( 'NONE',  ( 0.0000000000000000000, -1.000000000000000000, 0.0000000000000000000 ) ) ;
#77 = DIRECTION ( 'NONE',  ( 0.0000000000000000000, 0.0000000000000000000, 1.000000000000000000 ) ) ;
#78 = CARTESIAN_POINT ( 'NONE',  ( 0.0000000000000000000, 0.0000000000000000000, 0.0000000000000000000 ) ) ;
#79 = DIRECTION ( 'NONE',  ( 0.0000000000000000000, 0.9510565163047362000, 0.3090169943454549900 ) ) ;
#80 = DIRECTION ( 'NONE',  ( 0.0000000000000000000, 1.000000000000000000, 0.0000000000000000000 ) ) ;
#81 = DIRECTION ( 'NONE',  ( 0.0000000000000000000, 0.0000000000000000000, -1.000000000000000000 ) ) ;
#82 = CARTESIAN_POINT ( 'NONE',  ( 0.0000000000000000000, 5.306779755000000900, 0.0000000000000000000 ) ) ;
#83 = DIRECTION ( 'NONE',  ( 0.0000000000000000000, -1.000000000000000000, 0.0000000000000000000 ) ) ;
#84 = DIRECTION ( 'NONE',  ( 0.0000000000000000000, 0.0000000000000000000, -1.000000000000000000 ) ) ;
#85 = CARTESIAN_POINT ( 'NONE',  ( 0.0000000000000000000, 9.000000000000001800, 0.0000000000000000000 ) ) ;
#86 = DIRECTION ( 'NONE',  ( 0.0000000000000000000, -1.000000000000000000, 0.0000000000000000000 ) ) ;
#87 = DIRECTION ( 'NONE',  ( 0.0000000000000000000, 1.000000000000000000, 0.0000000000000000000 ) ) ;
#88 = CARTESIAN_POINT ( 'NONE',  ( -7.893600000000001100, 9.000000000000001800, -7.893600000000001100 ) ) ;
#89 = PLANE ( 'NONE',  #45 ) ;
#90 = DIRECTION ( 'NONE',  ( 0.0000000000000000000, -1.000000000000000000, 0.0000000000000000000 ) ) ;
#91 = DIRECTION ( 'NONE',  ( 0.0000000000000000000, 0.0000000000000000000, 1.000000000000000000 ) ) ;
#92 = CARTESIAN_POINT ( 'NONE',  ( -7.893600000000001100, 0.0000000000000000000, 7.893600000000001100 ) ) ;
#93 = DIRECTION ( 'NONE',  ( -0.0000000000000000000, 1.000000000000000000, 0.0000000000000000000 ) ) ;
#94 = PLANE ( 'NONE',  #16 ) ;
#95 = DIRECTION ( 'NONE',  ( 0.0000000000000000000, 0.0000000000000000000, 1.000000000000000000 ) ) ;
#96 = DIRECTION ( 'NONE',  ( 0.0000000000000000000, 0.0000000000000000000, -1.000000000000000000 ) ) ;
#97 = CARTESIAN_POINT ( 'NONE',  ( 0.0000000000000000000, 0.0000000000000000000, 0.0000000000000000000 ) ) ;
#98 = CARTESIAN_POINT ( 'NONE',  ( 0.0000000000000000000, 9.000000000000001800, 0.0000000000000000000 ) ) ;
#99 = DIRECTION ( 'NONE',  ( 0.0000000000000000000, 0.0000000000000000000, -1.000000000000000000 ) ) ;
#100 = CARTESIAN_POINT ( 'NONE',  ( 0.0000000000000000000, 5.306779755000000900, 0.0000000000000000000 ) ) ;
#101 =( NAMED_UNIT ( * ) SI_UNIT ( $, .STERADIAN. ) SOLID_ANGLE_UNIT ( ) );
#102 = PRODUCT_CONTEXT ( 'NONE', #112, 'mechanical' ) ;
#103 = APPLICATION_CONTEXT ( 'automotive_design' ) ;
#104 = CARTESIAN_POINT ( 'NONE',  ( 9.552245033349354600E-016, 0.0000000000000000000, -7.799999999999999800 ) ) ;
#105 = DIRECTION ( 'NONE',  ( 0.0000000000000000000, 0.0000000000000000000, 1.000000000000000000 ) ) ;
#106 = CARTESIAN_POINT ( 'NONE',  ( 0.0000000000000000000, 0.0000000000000000000, 0.0000000000000000000 ) ) ;
#107 = CARTESIAN_POINT ( 'NONE',  ( 0.0000000000000000000, 0.0000000000000000000, 7.799999999999999800 ) ) ;
#108 = DIRECTION ( 'NONE',  ( 0.0000000000000000000, 1.000000000000000000, 0.0000000000000000000 ) ) ;
#109 = CARTESIAN_POINT ( 'NONE',  ( 1.102182119232617900E-015, 3.693220244999961800, 9.000000000000001800 ) ) ;
#110 = DIRECTION ( 'NONE',  ( 0.0000000000000000000, -1.000000000000000000, 0.0000000000000000000 ) ) ;
#111 = CARTESIAN_POINT ( 'NONE',  ( 9.184850993605147900E-016, 0.0000000000000000000, -7.500000000000000000 ) ) ;
#112 = APPLICATION_CONTEXT ( 'automotive_design' ) ;
#113 =( LENGTH_UNIT ( ) NAMED_UNIT ( * ) SI_UNIT ( .MILLI., .METRE. ) );
#114 = DIRECTION ( 'NONE',  ( 0.0000000000000000000, 1.000000000000000000, 0.0000000000000000000 ) ) ;
#115 = APPLICATION_PROTOCOL_DEFINITION ( 'draft international standard', 'automotive_design', 1998, #103 ) ;
#116 = DIRECTION ( 'NONE',  ( 0.0000000000000000000, 0.0000000000000000000, 1.000000000000000000 ) ) ;
#117 = FILL_AREA_STYLE_COLOUR ( '', #212 ) ;
#118 =( NAMED_UNIT ( * ) PLANE_ANGLE_UNIT ( ) SI_UNIT ( $, .RADIAN. ) );
#119 = APPLICATION_PROTOCOL_DEFINITION ( 'draft international standard', 'automotive_design', 1998, #112 ) ;
#120 =( NAMED_UNIT ( * ) SI_UNIT ( $, .STERADIAN. ) SOLID_ANGLE_UNIT ( ) );
#121 = CARTESIAN_POINT ( 'NONE',  ( 0.0000000000000000000, 3.693220244999961800, 0.0000000000000000000 ) ) ;
#122 = DIRECTION ( 'NONE',  ( 0.0000000000000000000, 1.000000000000000000, 0.0000000000000000000 ) ) ;
#123 = CARTESIAN_POINT ( 'NONE',  ( 0.0000000000000000000, 3.693220244999961800, -9.000000000000001800 ) ) ;
#124 = CARTESIAN_POINT ( 'NONE',  ( 9.184850993605147900E-016, 9.000000000000001800, -7.500000000000000000 ) ) ;
#125 = CARTESIAN_POINT ( 'NONE',  ( 1.028703311283776600E-015, 9.000000000000007100, 7.799999999999997200 ) ) ;
#126 = CARTESIAN_POINT ( 'NONE',  ( 0.0000000000000000000, 0.0000000000000000000, 7.799999999999999800 ) ) ;
#127 = CARTESIAN_POINT ( 'NONE',  ( 1.028703311283776600E-015, 0.0000000000000000000, -7.799999999999999800 ) ) ;
#128 = CARTESIAN_POINT ( 'NONE',  ( 0.0000000000000000000, 9.000000000000007100, -7.799999999999997200 ) ) ;
#129 = CARTESIAN_POINT ( 'NONE',  ( 1.102182119232617900E-015, 5.306779755000046200, 9.000000000000001800 ) ) ;
#130 = CARTESIAN_POINT ( 'NONE',  ( 0.0000000000000000000, 9.000000000000001800, 7.500000000000000000 ) ) ;
#131 = CARTESIAN_POINT ( 'NONE',  ( 0.0000000000000000000, 5.306779755000000900, -9.000000000000001800 ) ) ;
#132 = CARTESIAN_POINT ( 'NONE',  ( 0.0000000000000000000, 0.0000000000000000000, 7.500000000000000000 ) ) ;
#133 = CARTESIAN_POINT ( 'NONE',  ( 9.184850993605147900E-016, 0.0000000000000000000, -7.500000000000000000 ) ) ;
#134 = CARTESIAN_POINT ( 'NONE',  ( 0.0000000000000000000, 0.0000000000000000000, 0.0000000000000000000 ) ) ;
#135 = DIRECTION ( 'NONE',  ( 0.0000000000000000000, 1.000000000000000000, 0.0000000000000000000 ) ) ;
#136 =( LENGTH_UNIT ( ) NAMED_UNIT ( * ) SI_UNIT ( .MILLI., .METRE. ) );
#137 = CARTESIAN_POINT ( 'NONE',  ( 0.0000000000000000000, 0.0000000000000000000, 7.500000000000000000 ) ) ;
#138 = CARTESIAN_POINT ( 'NONE',  ( 0.0000000000000000000, 9.000000000000007100, 0.0000000000000000000 ) ) ;
#139 = DIRECTION ( 'NONE',  ( -0.0000000000000000000, 1.000000000000000000, -0.0000000000000000000 ) ) ;
#140 = DIRECTION ( 'NONE',  ( 0.0000000000000000000, 0.0000000000000000000, -1.000000000000000000 ) ) ;
#141 =( NAMED_UNIT ( * ) PLANE_ANGLE_UNIT ( ) SI_UNIT ( $, .RADIAN. ) );
#142 = DIRECTION ( 'NONE',  ( 3.784366730072971800E-017, -0.9510565163047362000, 0.3090169943454549900 ) ) ;
#143 = CARTESIAN_POINT ( 'NONE',  ( 0.0000000000000000000, 9.000000000000001800, 0.0000000000000000000 ) ) ;
#144 = DIRECTION ( 'NONE',  ( 1.000000000000000000, 0.0000000000000000000, 0.0000000000000000000 ) ) ;
#145 = DIRECTION ( 'NONE',  ( 0.0000000000000000000, 1.000000000000000000, 0.0000000000000000000 ) ) ;
#146 = SURFACE_STYLE_USAGE ( .BOTH. , #153 ) ;
#147 = DIRECTION ( 'NONE',  ( 0.0000000000000000000, 0.0000000000000000000, 1.000000000000000000 ) ) ;
#148 = CARTESIAN_POINT ( 'NONE',  ( 0.0000000000000000000, 9.000000000000001800, -7.799999999999999800 ) ) ;
#149 = CARTESIAN_POINT ( 'NONE',  ( 9.552245033349354600E-016, 9.000000000000001800, 7.799999999999999800 ) ) ;
#150 = CARTESIAN_POINT ( 'NONE',  ( 0.0000000000000000000, 5.306779755000046200, 0.0000000000000000000 ) ) ;
#151 = DIRECTION ( 'NONE',  ( 0.0000000000000000000, -1.000000000000000000, 0.0000000000000000000 ) ) ;
#152 = DIRECTION ( 'NONE',  ( 0.0000000000000000000, -5.011423375044108200E-015, -1.000000000000000000 ) ) ;
#153 = SURFACE_SIDE_STYLE ('',( #213 ) ) ;
#154 = DIRECTION ( 'NONE',  ( 0.0000000000000000000, -0.9510565163047362000, -0.3090169943454549900 ) ) ;
#155 = DIRECTION ( 'NONE',  ( 3.784366730072971800E-017, 0.9510565163047362000, -0.3090169943454549900 ) ) ;
#156 = DIRECTION ( 'NONE',  ( 0.0000000000000000000, 4.288621926720438900E-015, 1.000000000000000000 ) ) ;
#157 = DIRECTION ( 'NONE',  ( 0.0000000000000000000, -1.000000000000000000, 0.0000000000000000000 ) ) ;
#158 = CARTESIAN_POINT ( 'NONE',  ( 0.0000000000000000000, 5.306779755000000900, -9.000000000000001800 ) ) ;
#159 = FILL_AREA_STYLE ('',( #117 ) ) ;
#160 = CARTESIAN_POINT ( 'NONE',  ( 0.0000000000000000000, 0.0000000000000000000, 0.0000000000000000000 ) ) ;
#161 = DIRECTION ( 'NONE',  ( 0.0000000000000000000, -1.000000000000000000, -0.0000000000000000000 ) ) ;
#162 = DIRECTION ( 'NONE',  ( 0.0000000000000000000, 0.0000000000000000000, 1.000000000000000000 ) ) ;
#163 = CARTESIAN_POINT ( 'NONE',  ( 0.0000000000000000000, 0.0000000000000000000, 0.0000000000000000000 ) ) ;
#164 = DIRECTION ( 'NONE',  ( -0.0000000000000000000, -1.000000000000000000, -0.0000000000000000000 ) ) ;
#165 = DIRECTION ( 'NONE',  ( 0.0000000000000000000, 0.0000000000000000000, 1.000000000000000000 ) ) ;
#166 = CARTESIAN_POINT ( 'NONE',  ( 1.102182119232617900E-015, 5.306779755000000900, 9.000000000000001800 ) ) ;
#167 = DIRECTION ( 'NONE',  ( 0.0000000000000000000, -1.000000000000000000, 0.0000000000000000000 ) ) ;
#168 = CARTESIAN_POINT ( 'NONE',  ( 0.0000000000000000000, 3.693220244999961800, 0.0000000000000000000 ) ) ;
#169 = DIRECTION ( 'NONE',  ( 0.0000000000000000000, 1.000000000000000000, 0.0000000000000000000 ) ) ;
#170 = DIRECTION ( 'NONE',  ( 0.0000000000000000000, 4.288621926720438900E-015, 1.000000000000000000 ) ) ;
#171 = CARTESIAN_POINT ( 'NONE',  ( 0.0000000000000000000, 5.306779755000046200, 0.0000000000000000000 ) ) ;
#172 = DIRECTION ( 'NONE',  ( 0.0000000000000000000, -1.000000000000000000, 0.0000000000000000000 ) ) ;
#173 = DIRECTION ( 'NONE',  ( 0.0000000000000000000, -5.011423375044108200E-015, -1.000000000000000000 ) ) ;
#174 = CARTESIAN_POINT ( 'NONE',  ( 0.0000000000000000000, 0.0000000000000000000, 0.0000000000000000000 ) ) ;
#175 = DIRECTION ( 'NONE',  ( -0.0000000000000000000, -1.000000000000000000, -0.0000000000000000000 ) ) ;
#176 = DIRECTION ( 'NONE',  ( 0.0000000000000000000, 0.0000000000000000000, 1.000000000000000000 ) ) ;
#177 = PRODUCT_DEFINITION_SHAPE ( 'NONE', 'NONE',  #4 ) ;
#178 = PRODUCT_DEFINITION_CONTEXT ( 'detailed design', #103, 'design' ) ;
#179 = UNCERTAINTY_MEASURE_WITH_UNIT (LENGTH_MEASURE( 1.000000000000000100E-005 ), #136, 'distance_accuracy_value', 'NONE');
#180 = UNCERTAINTY_MEASURE_WITH_UNIT (LENGTH_MEASURE( 1.000000000000000100E-005 ), #113, 'distance_accuracy_value', 'NONE');
#181 = UNCERTAINTY_MEASURE_WITH_UNIT (LENGTH_MEASURE( 1.000000000000000100E-005 ), #71, 'distance_accuracy_value', 'NONE');
#182 = MANIFOLD_SOLID_BREP ( 'Importato1', #311 ) ;
#183 = ADVANCED_BREP_SHAPE_REPRESENTATION ( '107400002Y400A', ( #182, #5 ), #15 ) ;
#184 = PRODUCT ( '107400002Y400A', '107400002Y400A', '', ( #102 ) ) ;
#185 = ADVANCED_FACE ( 'NONE', ( #259 ), #204, .T. ) ;
#186 = ADVANCED_FACE ( 'NONE', ( #199 ), #202, .T. ) ;
#187 = ADVANCED_FACE ( 'NONE', ( #195 ), #196, .F. ) ;
#188 = ADVANCED_FACE ( 'NONE', ( #203 ), #200, .T. ) ;
#189 = ADVANCED_FACE ( 'NONE', ( #197 ), #263, .T. ) ;
#190 = ADVANCED_FACE ( 'NONE', ( #201, #198 ), #89, .T. ) ;
#191 = ADVANCED_FACE ( 'NONE', ( #260, #264 ), #94, .T. ) ;
#192 = ADVANCED_FACE ( 'NONE', ( #205 ), #210, .T. ) ;
#193 = ADVANCED_FACE ( 'NONE', ( #211 ), #206, .T. ) ;
#194 = ADVANCED_FACE ( 'NONE', ( #209 ), #207, .F. ) ;
#195 = FACE_OUTER_BOUND ( 'NONE', #221, .T. ) ;
#196 = CYLINDRICAL_SURFACE ( 'NONE', #12, 7.500000000000000000 ) ;
#197 = FACE_OUTER_BOUND ( 'NONE', #273, .T. ) ;
#198 = FACE_OUTER_BOUND ( 'NONE', #281, .T. ) ;
#199 = FACE_OUTER_BOUND ( 'NONE', #290, .T. ) ;
#200 = CYLINDRICAL_SURFACE ( 'NONE', #13, 9.000000000000001800 ) ;
#201 = FACE_BOUND ( 'NONE', #287, .T. ) ;
#202 = CONICAL_SURFACE ( 'NONE', #9, 7.799999999999999800, 0.3141592653279692300 ) ;
#203 = FACE_OUTER_BOUND ( 'NONE', #303, .T. ) ;
#204 = CONICAL_SURFACE ( 'NONE', #10, 7.799999999999999800, 0.3141592653279692300 ) ;
#205 = FACE_OUTER_BOUND ( 'NONE', #307, .T. ) ;
#206 = CYLINDRICAL_SURFACE ( 'NONE', #32, 9.000000000000001800 ) ;
#207 = CYLINDRICAL_SURFACE ( 'NONE', #17, 7.500000000000000000 ) ;
#208 = ORIENTED_EDGE ( 'NONE', *, *, #30, .F. ) ;
#209 = FACE_OUTER_BOUND ( 'NONE', #218, .T. ) ;
#210 = CONICAL_SURFACE ( 'NONE', #14, 7.799999999999999800, 0.3141592653279692300 ) ;
#211 = FACE_OUTER_BOUND ( 'NONE', #285, .T. ) ;
#212 = COLOUR_RGB ( '',0.9882352941176471000, 0.8705882352941176600, 0.5490196078431373000 ) ;
#213 = SURFACE_STYLE_FILL_AREA ( #159 ) ;
#214 = PRESENTATION_STYLE_ASSIGNMENT (( #146 ) ) ;
#215 = EDGE_LOOP ( 'NONE', ( #224, #223 ) ) ;
#216 = EDGE_LOOP ( 'NONE', ( #269, #208 ) ) ;
#217 = ORIENTED_EDGE ( 'NONE', *, *, #19, .F. ) ;
#218 = EDGE_LOOP ( 'NONE', ( #226, #229, #227, #228 ) ) ;
#219 = EDGE_LOOP ( 'NONE', ( #291, #288, #284, #299 ) ) ;
#220 = ORIENTED_EDGE ( 'NONE', *, *, #20, .F. ) ;
#221 = EDGE_LOOP ( 'NONE', ( #271, #312, #278, #217 ) ) ;
#222 = ORIENTED_EDGE ( 'NONE', *, *, #38, .T. ) ;
#223 = ORIENTED_EDGE ( 'NONE', *, *, #25, .T. ) ;
#224 = ORIENTED_EDGE ( 'NONE', *, *, #52, .T. ) ;
#225 = ORIENTED_EDGE ( 'NONE', *, *, #18, .T. ) ;
#226 = ORIENTED_EDGE ( 'NONE', *, *, #1, .F. ) ;
#227 = ORIENTED_EDGE ( 'NONE', *, *, #19, .T. ) ;
#228 = ORIENTED_EDGE ( 'NONE', *, *, #20, .T. ) ;
#229 = ORIENTED_EDGE ( 'NONE', *, *, #30, .T. ) ;
#230 = LINE ( 'NONE', #137, #237 ) ;
#231 = ORIENTED_EDGE ( 'NONE', *, *, #34, .F. ) ;
#232 = LINE ( 'NONE', #133, #234 ) ;
#233 = CIRCLE ( 'NONE', #36, 7.500000000000000000 ) ;
#234 = VECTOR ( 'NONE', #114, 1000.000000000000000 ) ;
#235 = LINE ( 'NONE', #149, #239 ) ;
#236 = CIRCLE ( 'NONE', #37, 9.000000000000001800 ) ;
#237 = VECTOR ( 'NONE', #135, 1000.000000000000000 ) ;
#238 = LINE ( 'NONE', #148, #243 ) ;
#239 = VECTOR ( 'NONE', #142, 1000.000000000000200 ) ;
#240 = LINE ( 'NONE', #104, #244 ) ;
#241 = CIRCLE ( 'NONE', #40, 7.799999999999999800 ) ;
#242 = LINE ( 'NONE', #158, #247 ) ;
#243 = VECTOR ( 'NONE', #154, 1000.000000000000200 ) ;
#244 = VECTOR ( 'NONE', #155, 1000.000000000000200 ) ;
#245 = CIRCLE ( 'NONE', #6, 7.799999999999999800 ) ;
#246 = CIRCLE ( 'NONE', #39, 9.000000000000001800 ) ;
#247 = VECTOR ( 'NONE', #157, 1000.000000000000000 ) ;
#248 = CIRCLE ( 'NONE', #42, 9.000000000000001800 ) ;
#249 = LINE ( 'NONE', #166, #251 ) ;
#250 = CIRCLE ( 'NONE', #41, 7.500000000000000000 ) ;
#251 = VECTOR ( 'NONE', #167, 1000.000000000000000 ) ;
#252 = CIRCLE ( 'NONE', #50, 9.000000000000001800 ) ;
#253 = CIRCLE ( 'NONE', #43, 7.500000000000000000 ) ;
#254 = CIRCLE ( 'NONE', #46, 7.500000000000000000 ) ;
#255 = CIRCLE ( 'NONE', #49, 7.799999999999997200 ) ;
#256 = LINE ( 'NONE', #107, #258 ) ;
#257 = COLOUR_RGB ( '',0.9882352941176471000, 0.8705882352941176600, 0.5490196078431373000 ) ;
#258 = VECTOR ( 'NONE', #79, 1000.000000000000200 ) ;
#259 = FACE_OUTER_BOUND ( 'NONE', #219, .T. ) ;
#260 = FACE_BOUND ( 'NONE', #216, .T. ) ;
#261 = SURFACE_STYLE_FILL_AREA ( #70 ) ;
#262 = PRESENTATION_STYLE_ASSIGNMENT (( #69 ) ) ;
#263 = CONICAL_SURFACE ( 'NONE', #11, 7.799999999999999800, 0.3141592653279692300 ) ;
#264 = FACE_OUTER_BOUND ( 'NONE', #215, .T. ) ;
#265 = SHAPE_DEFINITION_REPRESENTATION ( #177, #183 ) ;
#266 = VERTEX_POINT ( 'NONE', #123 ) ;
#267 = VERTEX_POINT ( 'NONE', #124 ) ;
#268 = ORIENTED_EDGE ( 'NONE', *, *, #38, .F. ) ;
#269 = ORIENTED_EDGE ( 'NONE', *, *, #33, .F. ) ;
#270 = ORIENTED_EDGE ( 'NONE', *, *, #28, .F. ) ;
#271 = ORIENTED_EDGE ( 'NONE', *, *, #33, .T. ) ;
#272 = VERTEX_POINT ( 'NONE', #125 ) ;
#273 = EDGE_LOOP ( 'NONE', ( #305, #268, #295, #270 ) ) ;
#274 = VERTEX_POINT ( 'NONE', #109 ) ;
#275 = VERTEX_POINT ( 'NONE', #126 ) ;
#276 = VERTEX_POINT ( 'NONE', #111 ) ;
#277 = VERTEX_POINT ( 'NONE', #127 ) ;
#278 = ORIENTED_EDGE ( 'NONE', *, *, #34, .T. ) ;
#279 = CIRCLE ( 'NONE', #35, 7.799999999999997200 ) ;
#280 = ORIENTED_EDGE ( 'NONE', *, *, #28, .T. ) ;
#281 = EDGE_LOOP ( 'NONE', ( #222, #225 ) ) ;
#282 = ORIENTED_EDGE ( 'NONE', *, *, #22, .T. ) ;
#283 = ORIENTED_EDGE ( 'NONE', *, *, #26, .T. ) ;
#284 = ORIENTED_EDGE ( 'NONE', *, *, #31, .F. ) ;
#285 = EDGE_LOOP ( 'NONE', ( #306, #280, #283, #308 ) ) ;
#286 = VERTEX_POINT ( 'NONE', #128 ) ;
#287 = EDGE_LOOP ( 'NONE', ( #220, #231 ) ) ;
#288 = ORIENTED_EDGE ( 'NONE', *, *, #24, .T. ) ;
#289 = ORIENTED_EDGE ( 'NONE', *, *, #48, .T. ) ;
#290 = EDGE_LOOP ( 'NONE', ( #302, #282, #314, #313 ) ) ;
#291 = ORIENTED_EDGE ( 'NONE', *, *, #25, .F. ) ;
#292 = VERTEX_POINT ( 'NONE', #130 ) ;
#293 = VERTEX_POINT ( 'NONE', #129 ) ;
#294 = VERTEX_POINT ( 'NONE', #132 ) ;
#295 = ORIENTED_EDGE ( 'NONE', *, *, #23, .T. ) ;
#296 = ORIENTED_EDGE ( 'NONE', *, *, #52, .F. ) ;
#297 = ORIENTED_EDGE ( 'NONE', *, *, #27, .F. ) ;
#298 = ORIENTED_EDGE ( 'NONE', *, *, #21, .T. ) ;
#299 = ORIENTED_EDGE ( 'NONE', *, *, #48, .F. ) ;
#300 = ORIENTED_EDGE ( 'NONE', *, *, #26, .F. ) ;
#301 = VERTEX_POINT ( 'NONE', #131 ) ;
#302 = ORIENTED_EDGE ( 'NONE', *, *, #18, .F. ) ;
#303 = EDGE_LOOP ( 'NONE', ( #298, #304, #310, #300 ) ) ;
#304 = ORIENTED_EDGE ( 'NONE', *, *, #29, .T. ) ;
#305 = ORIENTED_EDGE ( 'NONE', *, *, #22, .F. ) ;
#306 = ORIENTED_EDGE ( 'NONE', *, *, #29, .F. ) ;
#307 = EDGE_LOOP ( 'NONE', ( #309, #296, #289, #297 ) ) ;
#308 = ORIENTED_EDGE ( 'NONE', *, *, #27, .T. ) ;
#309 = ORIENTED_EDGE ( 'NONE', *, *, #24, .F. ) ;
#310 = ORIENTED_EDGE ( 'NONE', *, *, #31, .T. ) ;
#311 = CLOSED_SHELL ( 'NONE', ( #187, #186, #185, #188, #194, #190, #191, #189, #192, #193 ) ) ;
#312 = ORIENTED_EDGE ( 'NONE', *, *, #1, .T. ) ;
#313 = ORIENTED_EDGE ( 'NONE', *, *, #23, .F. ) ;
#314 = ORIENTED_EDGE ( 'NONE', *, *, #21, .F. ) ;
ENDSEC;
END-ISO-10303-21;
