ISO-10303-21;
HEADER;
FILE_DESCRIPTION (( 'STEP AP214' ),
    '1' );
FILE_NAME ('107600002Y500A.STEP',
    '2013-02-25T17:25:04',
    ( '' ),
    ( '' ),
    'SwSTEP 2.0',
    'SolidWorks 2012',
    '' );
FILE_SCHEMA (( 'AUTOMOTIVE_DESIGN' ));
ENDSEC;

DATA;
#1 = EDGE_CURVE ( 'NONE', #128, #157, #98, .T. ) ;
#2 = PRODUCT_DEFINITION ( 'NON CONOSCIUTO', '', #40, #57 ) ;
#3 = EDGE_CURVE ( 'NONE', #78, #113, #172, .T. ) ;
#4 = EDGE_CURVE ( 'NONE', #81, #72, #151, .T. ) ;
#5 = AXIS2_PLACEMENT_3D ( 'NONE', #188, #191, #187 ) ;
#6 = EDGE_CURVE ( 'NONE', #128, #136, #158, .T. ) ;
#7 = EDGE_CURVE ( 'NONE', #78, #136, #130, .T. ) ;
#8 =( GEOMETRIC_REPRESENTATION_CONTEXT ( 3 ) GLOBAL_UNCERTAINTY_ASSIGNED_CONTEXT ( ( #58 ) ) GLOBAL_UNIT_ASSIGNED_CONTEXT ( ( #194, #193, #192 ) ) REPRESENTATION_CONTEXT ( 'NONE', 'WORKASPACE' ) );
#9 = PRODUCT_RELATED_PRODUCT_CATEGORY ( 'part', '', ( #304 ) ) ;
#10 = EDGE_CURVE ( 'NONE', #176, #111, #88, .T. ) ;
#11 = EDGE_CURVE ( 'NONE', #113, #78, #120, .T. ) ;
#12 = EDGE_CURVE ( 'NONE', #157, #128, #154, .T. ) ;
#13 = EDGE_CURVE ( 'NONE', #113, #76, #160, .T. ) ;
#14 = EDGE_CURVE ( 'NONE', #79, #179, #99, .T. ) ;
#15 = AXIS2_PLACEMENT_3D ( 'NONE', #297, #296, #295 ) ;
#16 = AXIS2_PLACEMENT_3D ( 'NONE', #268, #301, #300 ) ;
#17 = AXIS2_PLACEMENT_3D ( 'NONE', #282, #280, #279 ) ;
#18 = STYLED_ITEM ( 'NONE', ( #68 ), #60 ) ;
#19 = AXIS2_PLACEMENT_3D ( 'NONE', #229, #233, #221 ) ;
#20 =( GEOMETRIC_REPRESENTATION_CONTEXT ( 3 ) GLOBAL_UNCERTAINTY_ASSIGNED_CONTEXT ( ( #62 ) ) GLOBAL_UNIT_ASSIGNED_CONTEXT ( ( #206, #205, #204 ) ) REPRESENTATION_CONTEXT ( 'NONE', 'WORKASPACE' ) );
#21 = AXIS2_PLACEMENT_3D ( 'NONE', #209, #208, #210 ) ;
#22 = AXIS2_PLACEMENT_3D ( 'NONE', #217, #216, #219 ) ;
#23 = PRESENTATION_LAYER_ASSIGNMENT (  '', '', ( #18 ) ) ;
#24 = AXIS2_PLACEMENT_3D ( 'NONE', #291, #290, #286 ) ;
#25 =( GEOMETRIC_REPRESENTATION_CONTEXT ( 3 ) GLOBAL_UNCERTAINTY_ASSIGNED_CONTEXT ( ( #59 ) ) GLOBAL_UNIT_ASSIGNED_CONTEXT ( ( #273, #271, #270 ) ) REPRESENTATION_CONTEXT ( 'NONE', 'WORKASPACE' ) );
#26 = MECHANICAL_DESIGN_GEOMETRIC_PRESENTATION_REPRESENTATION (  '', ( #18 ), #25 ) ;
#27 = AXIS2_PLACEMENT_3D ( 'NONE', #258, #249, #251 ) ;
#28 = AXIS2_PLACEMENT_3D ( 'NONE', #248, #247, #250 ) ;
#29 = AXIS2_PLACEMENT_3D ( 'NONE', #220, #227, #224 ) ;
#30 = MECHANICAL_DESIGN_GEOMETRIC_PRESENTATION_REPRESENTATION (  '', ( #37 ), #8 ) ;
#31 = AXIS2_PLACEMENT_3D ( 'NONE', #239, #240, #230 ) ;
#32 = EDGE_CURVE ( 'NONE', #76, #136, #140, .T. ) ;
#33 = EDGE_CURVE ( 'NONE', #176, #179, #142, .T. ) ;
#34 = PRESENTATION_LAYER_ASSIGNMENT (  '', '', ( #37 ) ) ;
#35 = AXIS2_PLACEMENT_3D ( 'NONE', #242, #241, #243 ) ;
#36 = AXIS2_PLACEMENT_3D ( 'NONE', #245, #244, #246 ) ;
#37 = STYLED_ITEM ( 'NONE', ( #173 ), #61 ) ;
#38 = EDGE_CURVE ( 'NONE', #136, #76, #159, .T. ) ;
#39 = AXIS2_PLACEMENT_3D ( 'NONE', #207, #190, #189 ) ;
#40 = PRODUCT_DEFINITION_FORMATION_WITH_SPECIFIED_SOURCE ( 'TUTTO', '', #304, .NOT_KNOWN. ) ;
#41 = AXIS2_PLACEMENT_3D ( 'NONE', #223, #222, #218 ) ;
#42 = AXIS2_PLACEMENT_3D ( 'NONE', #212, #201, #200 ) ;
#43 = AXIS2_PLACEMENT_3D ( 'NONE', #225, #228, #232 ) ;
#44 = AXIS2_PLACEMENT_3D ( 'NONE', #214, #211, #215 ) ;
#45 = AXIS2_PLACEMENT_3D ( 'NONE', #265, #263, #261 ) ;
#46 = EDGE_CURVE ( 'NONE', #157, #76, #145, .T. ) ;
#47 = AXIS2_PLACEMENT_3D ( 'NONE', #238, #237, #236 ) ;
#48 = AXIS2_PLACEMENT_3D ( 'NONE', #294, #284, #272 ) ;
#49 = EDGE_CURVE ( 'NONE', #111, #79, #143, .T. ) ;
#50 = AXIS2_PLACEMENT_3D ( 'NONE', #267, #203, #288 ) ;
#51 = EDGE_CURVE ( 'NONE', #179, #79, #137, .T. ) ;
#52 = EDGE_CURVE ( 'NONE', #72, #157, #165, .T. ) ;
#53 = EDGE_CURVE ( 'NONE', #111, #176, #123, .T. ) ;
#54 = EDGE_CURVE ( 'NONE', #72, #81, #102, .T. ) ;
#55 = EDGE_CURVE ( 'NONE', #81, #128, #104, .T. ) ;
#56 = PRODUCT_DEFINITION_SHAPE ( 'NONE', 'NONE',  #2 ) ;
#57 = PRODUCT_DEFINITION_CONTEXT ( 'detailed design', #184, 'design' ) ;
#58 = UNCERTAINTY_MEASURE_WITH_UNIT (LENGTH_MEASURE( 1.000000000000000100E-005 ), #194, 'distance_accuracy_value', 'NONE');
#59 = UNCERTAINTY_MEASURE_WITH_UNIT (LENGTH_MEASURE( 1.000000000000000100E-005 ), #273, 'distance_accuracy_value', 'NONE');
#60 = MANIFOLD_SOLID_BREP ( 'Importato1', #90 ) ;
#61 = ADVANCED_BREP_SHAPE_REPRESENTATION ( '107600002Y500A', ( #60, #39 ), #20 ) ;
#62 = UNCERTAINTY_MEASURE_WITH_UNIT (LENGTH_MEASURE( 1.000000000000000100E-005 ), #206, 'distance_accuracy_value', 'NONE');
#63 = FACE_OUTER_BOUND ( 'NONE', #147, .T. ) ;
#64 = ORIENTED_EDGE ( 'NONE', *, *, #11, .F. ) ;
#65 = ORIENTED_EDGE ( 'NONE', *, *, #38, .F. ) ;
#66 = ORIENTED_EDGE ( 'NONE', *, *, #13, .T. ) ;
#67 = SURFACE_STYLE_FILL_AREA ( #276 ) ;
#68 = PRESENTATION_STYLE_ASSIGNMENT (( #274 ) ) ;
#69 = FACE_BOUND ( 'NONE', #132, .T. ) ;
#70 = CONICAL_SURFACE ( 'NONE', #21, 8.350000000000001400, 0.3141592653383478200 ) ;
#71 = FACE_OUTER_BOUND ( 'NONE', #94, .T. ) ;
#72 = VERTEX_POINT ( 'NONE', #285 ) ;
#73 = VECTOR ( 'NONE', #287, 1000.000000000000000 ) ;
#74 = ORIENTED_EDGE ( 'NONE', *, *, #32, .T. ) ;
#75 = ORIENTED_EDGE ( 'NONE', *, *, #6, .T. ) ;
#76 = VERTEX_POINT ( 'NONE', #277 ) ;
#77 = ORIENTED_EDGE ( 'NONE', *, *, #49, .F. ) ;
#78 = VERTEX_POINT ( 'NONE', #283 ) ;
#79 = VERTEX_POINT ( 'NONE', #260 ) ;
#80 = FACE_OUTER_BOUND ( 'NONE', #127, .T. ) ;
#81 = VERTEX_POINT ( 'NONE', #262 ) ;
#82 = CYLINDRICAL_SURFACE ( 'NONE', #44, 9.500000000000000000 ) ;
#83 = FACE_OUTER_BOUND ( 'NONE', #148, .T. ) ;
#84 = CYLINDRICAL_SURFACE ( 'NONE', #35, 9.500000000000000000 ) ;
#85 = CYLINDRICAL_SURFACE ( 'NONE', #22, 8.000000000000000000 ) ;
#86 = FACE_OUTER_BOUND ( 'NONE', #177, .T. ) ;
#87 = ORIENTED_EDGE ( 'NONE', *, *, #10, .F. ) ;
#88 = CIRCLE ( 'NONE', #47, 8.000000000000000000 ) ;
#89 = CONICAL_SURFACE ( 'NONE', #27, 8.350000000000001400, 0.3141592653383479800 ) ;
#90 = CLOSED_SHELL ( 'NONE', ( #312, #305, #314, #313, #306, #309, #310, #311, #307, #308 ) ) ;
#91 = FACE_OUTER_BOUND ( 'NONE', #105, .T. ) ;
#92 = ORIENTED_EDGE ( 'NONE', *, *, #33, .F. ) ;
#93 = ORIENTED_EDGE ( 'NONE', *, *, #49, .T. ) ;
#94 = EDGE_LOOP ( 'NONE', ( #146, #106, #168, #109 ) ) ;
#95 = SHAPE_DEFINITION_REPRESENTATION ( #56, #61 ) ;
#96 = FACE_BOUND ( 'NONE', #138, .T. ) ;
#97 = ORIENTED_EDGE ( 'NONE', *, *, #6, .F. ) ;
#98 = CIRCLE ( 'NONE', #50, 9.500000000000000000 ) ;
#99 = CIRCLE ( 'NONE', #42, 8.000000000000000000 ) ;
#100 = FACE_OUTER_BOUND ( 'NONE', #119, .T. ) ;
#101 = SURFACE_STYLE_FILL_AREA ( #197 ) ;
#102 = CIRCLE ( 'NONE', #17, 8.349999999999980100 ) ;
#103 = FACE_OUTER_BOUND ( 'NONE', #126, .T. ) ;
#104 = LINE ( 'NONE', #293, #150 ) ;
#105 = EDGE_LOOP ( 'NONE', ( #156, #116, #125, #77 ) ) ;
#106 = ORIENTED_EDGE ( 'NONE', *, *, #52, .T. ) ;
#107 = COLOUR_RGB ( '',1.000000000000000000, 1.000000000000000000, 1.000000000000000000 ) ;
#108 = ORIENTED_EDGE ( 'NONE', *, *, #46, .F. ) ;
#109 = ORIENTED_EDGE ( 'NONE', *, *, #55, .F. ) ;
#110 = ORIENTED_EDGE ( 'NONE', *, *, #12, .T. ) ;
#111 = VERTEX_POINT ( 'NONE', #264 ) ;
#112 = VECTOR ( 'NONE', #303, 1000.000000000000000 ) ;
#113 = VERTEX_POINT ( 'NONE', #256 ) ;
#114 = COLOUR_RGB ( '',1.000000000000000000, 1.000000000000000000, 1.000000000000000000 ) ;
#115 = VECTOR ( 'NONE', #289, 1000.000000000000000 ) ;
#116 = ORIENTED_EDGE ( 'NONE', *, *, #33, .T. ) ;
#117 = EDGE_LOOP ( 'NONE', ( #162, #175 ) ) ;
#118 = ORIENTED_EDGE ( 'NONE', *, *, #7, .F. ) ;
#119 = EDGE_LOOP ( 'NONE', ( #122, #178, #133, #174 ) ) ;
#120 = CIRCLE ( 'NONE', #43, 8.350000000000001400 ) ;
#121 = FACE_OUTER_BOUND ( 'NONE', #124, .T. ) ;
#122 = ORIENTED_EDGE ( 'NONE', *, *, #52, .F. ) ;
#123 = CIRCLE ( 'NONE', #24, 8.000000000000000000 ) ;
#124 = EDGE_LOOP ( 'NONE', ( #92, #166, #93, #170 ) ) ;
#125 = ORIENTED_EDGE ( 'NONE', *, *, #51, .T. ) ;
#126 = EDGE_LOOP ( 'NONE', ( #167, #152 ) ) ;
#127 = EDGE_LOOP ( 'NONE', ( #118, #64, #66, #65 ) ) ;
#128 = VERTEX_POINT ( 'NONE', #254 ) ;
#129 = CONICAL_SURFACE ( 'NONE', #36, 8.350000000000001400, 0.3141592653383478200 ) ;
#130 = LINE ( 'NONE', #269, #153 ) ;
#131 = ORIENTED_EDGE ( 'NONE', *, *, #32, .F. ) ;
#132 = EDGE_LOOP ( 'NONE', ( #141, #182 ) ) ;
#133 = ORIENTED_EDGE ( 'NONE', *, *, #55, .T. ) ;
#134 = ORIENTED_EDGE ( 'NONE', *, *, #38, .T. ) ;
#135 = ORIENTED_EDGE ( 'NONE', *, *, #3, .F. ) ;
#136 = VERTEX_POINT ( 'NONE', #257 ) ;
#137 = CIRCLE ( 'NONE', #15, 8.000000000000000000 ) ;
#138 = EDGE_LOOP ( 'NONE', ( #181, #87 ) ) ;
#139 = ORIENTED_EDGE ( 'NONE', *, *, #1, .T. ) ;
#140 = CIRCLE ( 'NONE', #5, 9.500000000000000000 ) ;
#141 = ORIENTED_EDGE ( 'NONE', *, *, #14, .F. ) ;
#142 = LINE ( 'NONE', #213, #73 ) ;
#143 = LINE ( 'NONE', #299, #180 ) ;
#144 = VECTOR ( 'NONE', #281, 1000.000000000000000 ) ;
#145 = LINE ( 'NONE', #185, #144 ) ;
#146 = ORIENTED_EDGE ( 'NONE', *, *, #54, .F. ) ;
#147 = EDGE_LOOP ( 'NONE', ( #139, #149, #74, #97 ) ) ;
#148 = EDGE_LOOP ( 'NONE', ( #108, #110, #75, #134 ) ) ;
#149 = ORIENTED_EDGE ( 'NONE', *, *, #46, .T. ) ;
#150 = VECTOR ( 'NONE', #292, 1000.000000000000000 ) ;
#151 = CIRCLE ( 'NONE', #45, 8.349999999999980100 ) ;
#152 = ORIENTED_EDGE ( 'NONE', *, *, #3, .T. ) ;
#153 = VECTOR ( 'NONE', #259, 1000.000000000000100 ) ;
#154 = CIRCLE ( 'NONE', #41, 9.500000000000000000 ) ;
#155 = FACE_OUTER_BOUND ( 'NONE', #117, .T. ) ;
#156 = ORIENTED_EDGE ( 'NONE', *, *, #53, .T. ) ;
#157 = VERTEX_POINT ( 'NONE', #253 ) ;
#158 = LINE ( 'NONE', #266, #115 ) ;
#159 = CIRCLE ( 'NONE', #16, 9.500000000000000000 ) ;
#160 = LINE ( 'NONE', #231, #163 ) ;
#161 = CONICAL_SURFACE ( 'NONE', #29, 8.350000000000001400, 0.3141592653383479800 ) ;
#162 = ORIENTED_EDGE ( 'NONE', *, *, #4, .T. ) ;
#163 = VECTOR ( 'NONE', #235, 1000.000000000000100 ) ;
#164 = ORIENTED_EDGE ( 'NONE', *, *, #7, .T. ) ;
#165 = LINE ( 'NONE', #302, #112 ) ;
#166 = ORIENTED_EDGE ( 'NONE', *, *, #10, .T. ) ;
#167 = ORIENTED_EDGE ( 'NONE', *, *, #11, .T. ) ;
#168 = ORIENTED_EDGE ( 'NONE', *, *, #1, .F. ) ;
#169 = ORIENTED_EDGE ( 'NONE', *, *, #13, .F. ) ;
#170 = ORIENTED_EDGE ( 'NONE', *, *, #14, .T. ) ;
#171 = CYLINDRICAL_SURFACE ( 'NONE', #28, 8.000000000000000000 ) ;
#172 = CIRCLE ( 'NONE', #48, 8.350000000000001400 ) ;
#173 = PRESENTATION_STYLE_ASSIGNMENT (( #195 ) ) ;
#174 = ORIENTED_EDGE ( 'NONE', *, *, #12, .F. ) ;
#175 = ORIENTED_EDGE ( 'NONE', *, *, #54, .T. ) ;
#176 = VERTEX_POINT ( 'NONE', #252 ) ;
#177 = EDGE_LOOP ( 'NONE', ( #135, #164, #131, #169 ) ) ;
#178 = ORIENTED_EDGE ( 'NONE', *, *, #4, .F. ) ;
#179 = VERTEX_POINT ( 'NONE', #255 ) ;
#180 = VECTOR ( 'NONE', #298, 1000.000000000000000 ) ;
#181 = ORIENTED_EDGE ( 'NONE', *, *, #53, .F. ) ;
#182 = ORIENTED_EDGE ( 'NONE', *, *, #51, .F. ) ;
#183 = APPLICATION_PROTOCOL_DEFINITION ( 'draft international standard', 'automotive_design', 1998, #184 ) ;
#184 = APPLICATION_CONTEXT ( 'automotive_design' ) ;
#185 = CARTESIAN_POINT ( 'NONE',  ( 1.163414459189985500E-015, 5.960663932000001000, 9.500000000000000000 ) ) ;
#186 = PRODUCT_CONTEXT ( 'NONE', #199, 'mechanical' ) ;
#187 = DIRECTION ( 'NONE',  ( 0.0000000000000000000, -5.660676605819054700E-015, 1.000000000000000000 ) ) ;
#188 = CARTESIAN_POINT ( 'NONE',  ( 0.0000000000000000000, 3.539336068000054100, 0.0000000000000000000 ) ) ;
#189 = DIRECTION ( 'NONE',  ( 1.000000000000000000, 0.0000000000000000000, 0.0000000000000000000 ) ) ;
#190 = DIRECTION ( 'NONE',  ( 0.0000000000000000000, 0.0000000000000000000, 1.000000000000000000 ) ) ;
#191 = DIRECTION ( 'NONE',  ( 0.0000000000000000000, 1.000000000000000000, 0.0000000000000000000 ) ) ;
#192 =( NAMED_UNIT ( * ) SI_UNIT ( $, .STERADIAN. ) SOLID_ANGLE_UNIT ( ) );
#193 =( NAMED_UNIT ( * ) PLANE_ANGLE_UNIT ( ) SI_UNIT ( $, .RADIAN. ) );
#194 =( LENGTH_UNIT ( ) NAMED_UNIT ( * ) SI_UNIT ( .MILLI., .METRE. ) );
#195 = SURFACE_STYLE_USAGE ( .BOTH. , #196 ) ;
#196 = SURFACE_SIDE_STYLE ('',( #101 ) ) ;
#197 = FILL_AREA_STYLE ('',( #198 ) ) ;
#198 = FILL_AREA_STYLE_COLOUR ( '', #114 ) ;
#199 = APPLICATION_CONTEXT ( 'automotive_design' ) ;
#200 = DIRECTION ( 'NONE',  ( 0.0000000000000000000, 0.0000000000000000000, 1.000000000000000000 ) ) ;
#201 = DIRECTION ( 'NONE',  ( -0.0000000000000000000, 1.000000000000000000, 0.0000000000000000000 ) ) ;
#202 = APPLICATION_PROTOCOL_DEFINITION ( 'draft international standard', 'automotive_design', 1998, #199 ) ;
#203 = DIRECTION ( 'NONE',  ( 0.0000000000000000000, -1.000000000000000000, 0.0000000000000000000 ) ) ;
#204 =( NAMED_UNIT ( * ) SI_UNIT ( $, .STERADIAN. ) SOLID_ANGLE_UNIT ( ) );
#205 =( NAMED_UNIT ( * ) PLANE_ANGLE_UNIT ( ) SI_UNIT ( $, .RADIAN. ) );
#206 =( LENGTH_UNIT ( ) NAMED_UNIT ( * ) SI_UNIT ( .MILLI., .METRE. ) );
#207 = CARTESIAN_POINT ( 'NONE',  ( 0.0000000000000000000, 0.0000000000000000000, 0.0000000000000000000 ) ) ;
#208 = DIRECTION ( 'NONE',  ( -0.0000000000000000000, 1.000000000000000000, 0.0000000000000000000 ) ) ;
#209 = CARTESIAN_POINT ( 'NONE',  ( 0.0000000000000000000, 0.0000000000000000000, 0.0000000000000000000 ) ) ;
#210 = DIRECTION ( 'NONE',  ( 0.0000000000000000000, 0.0000000000000000000, 1.000000000000000000 ) ) ;
#211 = DIRECTION ( 'NONE',  ( 0.0000000000000000000, -1.000000000000000000, 0.0000000000000000000 ) ) ;
#212 = CARTESIAN_POINT ( 'NONE',  ( 0.0000000000000000000, 9.500000000000000000, 0.0000000000000000000 ) ) ;
#213 = CARTESIAN_POINT ( 'NONE',  ( 9.797174393178825700E-016, 0.0000000000000000000, -8.000000000000000000 ) ) ;
#214 = CARTESIAN_POINT ( 'NONE',  ( 0.0000000000000000000, 5.960663932000001000, 0.0000000000000000000 ) ) ;
#215 = DIRECTION ( 'NONE',  ( 0.0000000000000000000, 0.0000000000000000000, -1.000000000000000000 ) ) ;
#216 = DIRECTION ( 'NONE',  ( -0.0000000000000000000, 1.000000000000000000, 0.0000000000000000000 ) ) ;
#217 = CARTESIAN_POINT ( 'NONE',  ( 0.0000000000000000000, 0.0000000000000000000, 0.0000000000000000000 ) ) ;
#218 = DIRECTION ( 'NONE',  ( 0.0000000000000000000, -9.130123557772668100E-016, -1.000000000000000000 ) ) ;
#219 = DIRECTION ( 'NONE',  ( 0.0000000000000000000, 0.0000000000000000000, 1.000000000000000000 ) ) ;
#220 = CARTESIAN_POINT ( 'NONE',  ( 0.0000000000000000000, 9.500000000000000000, 0.0000000000000000000 ) ) ;
#221 = DIRECTION ( 'NONE',  ( 0.0000000000000000000, 0.0000000000000000000, -1.000000000000000000 ) ) ;
#222 = DIRECTION ( 'NONE',  ( 0.0000000000000000000, -1.000000000000000000, 0.0000000000000000000 ) ) ;
#223 = CARTESIAN_POINT ( 'NONE',  ( 0.0000000000000000000, 5.960663932000009900, 0.0000000000000000000 ) ) ;
#224 = DIRECTION ( 'NONE',  ( 0.0000000000000000000, 0.0000000000000000000, -1.000000000000000000 ) ) ;
#225 = CARTESIAN_POINT ( 'NONE',  ( 0.0000000000000000000, 0.0000000000000000000, 0.0000000000000000000 ) ) ;
#226 = PLANE ( 'NONE',  #19 ) ;
#227 = DIRECTION ( 'NONE',  ( 0.0000000000000000000, -1.000000000000000000, 0.0000000000000000000 ) ) ;
#228 = DIRECTION ( 'NONE',  ( 0.0000000000000000000, -1.000000000000000000, -0.0000000000000000000 ) ) ;
#229 = CARTESIAN_POINT ( 'NONE',  ( -8.450200000000000600, 0.0000000000000000000, 8.450200000000000600 ) ) ;
#230 = DIRECTION ( 'NONE',  ( 0.0000000000000000000, 0.0000000000000000000, 1.000000000000000000 ) ) ;
#231 = CARTESIAN_POINT ( 'NONE',  ( 0.0000000000000000000, 0.0000000000000000000, 8.350000000000001400 ) ) ;
#232 = DIRECTION ( 'NONE',  ( 0.0000000000000000000, 0.0000000000000000000, 1.000000000000000000 ) ) ;
#233 = DIRECTION ( 'NONE',  ( 0.0000000000000000000, -1.000000000000000000, 0.0000000000000000000 ) ) ;
#234 = PLANE ( 'NONE',  #31 ) ;
#235 = DIRECTION ( 'NONE',  ( 0.0000000000000000000, 0.9510565163015289900, 0.3090169943553257000 ) ) ;
#236 = DIRECTION ( 'NONE',  ( 0.0000000000000000000, 0.0000000000000000000, 1.000000000000000000 ) ) ;
#237 = DIRECTION ( 'NONE',  ( 0.0000000000000000000, -1.000000000000000000, -0.0000000000000000000 ) ) ;
#238 = CARTESIAN_POINT ( 'NONE',  ( 0.0000000000000000000, 0.0000000000000000000, 0.0000000000000000000 ) ) ;
#239 = CARTESIAN_POINT ( 'NONE',  ( -8.450200000000000600, 9.500000000000000000, -8.450200000000000600 ) ) ;
#240 = DIRECTION ( 'NONE',  ( 0.0000000000000000000, 1.000000000000000000, 0.0000000000000000000 ) ) ;
#241 = DIRECTION ( 'NONE',  ( 0.0000000000000000000, -1.000000000000000000, 0.0000000000000000000 ) ) ;
#242 = CARTESIAN_POINT ( 'NONE',  ( 0.0000000000000000000, 5.960663932000001000, 0.0000000000000000000 ) ) ;
#243 = DIRECTION ( 'NONE',  ( 0.0000000000000000000, 0.0000000000000000000, -1.000000000000000000 ) ) ;
#244 = DIRECTION ( 'NONE',  ( -0.0000000000000000000, 1.000000000000000000, 0.0000000000000000000 ) ) ;
#245 = CARTESIAN_POINT ( 'NONE',  ( 0.0000000000000000000, 0.0000000000000000000, 0.0000000000000000000 ) ) ;
#246 = DIRECTION ( 'NONE',  ( 0.0000000000000000000, 0.0000000000000000000, 1.000000000000000000 ) ) ;
#247 = DIRECTION ( 'NONE',  ( -0.0000000000000000000, 1.000000000000000000, 0.0000000000000000000 ) ) ;
#248 = CARTESIAN_POINT ( 'NONE',  ( 0.0000000000000000000, 0.0000000000000000000, 0.0000000000000000000 ) ) ;
#249 = DIRECTION ( 'NONE',  ( 0.0000000000000000000, -1.000000000000000000, 0.0000000000000000000 ) ) ;
#250 = DIRECTION ( 'NONE',  ( 0.0000000000000000000, 0.0000000000000000000, 1.000000000000000000 ) ) ;
#251 = DIRECTION ( 'NONE',  ( 0.0000000000000000000, 0.0000000000000000000, -1.000000000000000000 ) ) ;
#252 = CARTESIAN_POINT ( 'NONE',  ( 9.797174393178825700E-016, 0.0000000000000000000, -8.000000000000000000 ) ) ;
#253 = CARTESIAN_POINT ( 'NONE',  ( 1.163414459189985500E-015, 5.960663932000009900, 9.500000000000000000 ) ) ;
#254 = CARTESIAN_POINT ( 'NONE',  ( 0.0000000000000000000, 5.960663932000001000, -9.500000000000000000 ) ) ;
#255 = CARTESIAN_POINT ( 'NONE',  ( 9.797174393178825700E-016, 9.500000000000000000, -8.000000000000000000 ) ) ;
#256 = CARTESIAN_POINT ( 'NONE',  ( 0.0000000000000000000, 0.0000000000000000000, 8.350000000000001400 ) ) ;
#257 = CARTESIAN_POINT ( 'NONE',  ( 0.0000000000000000000, 3.539336068000054100, -9.500000000000000000 ) ) ;
#258 = CARTESIAN_POINT ( 'NONE',  ( 0.0000000000000000000, 9.500000000000000000, 0.0000000000000000000 ) ) ;
#259 = DIRECTION ( 'NONE',  ( 3.784366730193853000E-017, 0.9510565163015289900, -0.3090169943553257000 ) ) ;
#260 = CARTESIAN_POINT ( 'NONE',  ( 0.0000000000000000000, 9.500000000000000000, 8.000000000000000000 ) ) ;
#261 = DIRECTION ( 'NONE',  ( 0.0000000000000000000, 0.0000000000000000000, -1.000000000000000000 ) ) ;
#262 = CARTESIAN_POINT ( 'NONE',  ( 0.0000000000000000000, 9.500000000000063900, -8.349999999999980100 ) ) ;
#263 = DIRECTION ( 'NONE',  ( -0.0000000000000000000, 1.000000000000000000, -0.0000000000000000000 ) ) ;
#264 = CARTESIAN_POINT ( 'NONE',  ( 0.0000000000000000000, 0.0000000000000000000, 8.000000000000000000 ) ) ;
#265 = CARTESIAN_POINT ( 'NONE',  ( 0.0000000000000000000, 9.500000000000063900, 0.0000000000000000000 ) ) ;
#266 = CARTESIAN_POINT ( 'NONE',  ( 0.0000000000000000000, 5.960663932000001000, -9.500000000000000000 ) ) ;
#267 = CARTESIAN_POINT ( 'NONE',  ( 0.0000000000000000000, 5.960663932000009900, 0.0000000000000000000 ) ) ;
#268 = CARTESIAN_POINT ( 'NONE',  ( 0.0000000000000000000, 3.539336068000054100, 0.0000000000000000000 ) ) ;
#269 = CARTESIAN_POINT ( 'NONE',  ( 1.022580077288040100E-015, 0.0000000000000000000, -8.350000000000001400 ) ) ;
#270 =( NAMED_UNIT ( * ) SI_UNIT ( $, .STERADIAN. ) SOLID_ANGLE_UNIT ( ) );
#271 =( NAMED_UNIT ( * ) PLANE_ANGLE_UNIT ( ) SI_UNIT ( $, .RADIAN. ) );
#272 = DIRECTION ( 'NONE',  ( 0.0000000000000000000, 0.0000000000000000000, 1.000000000000000000 ) ) ;
#273 =( LENGTH_UNIT ( ) NAMED_UNIT ( * ) SI_UNIT ( .MILLI., .METRE. ) );
#274 = SURFACE_STYLE_USAGE ( .BOTH. , #275 ) ;
#275 = SURFACE_SIDE_STYLE ('',( #67 ) ) ;
#276 = FILL_AREA_STYLE ('',( #278 ) ) ;
#277 = CARTESIAN_POINT ( 'NONE',  ( 1.163414459189985500E-015, 3.539336068000054100, 9.500000000000000000 ) ) ;
#278 = FILL_AREA_STYLE_COLOUR ( '', #107 ) ;
#279 = DIRECTION ( 'NONE',  ( 0.0000000000000000000, 0.0000000000000000000, -1.000000000000000000 ) ) ;
#280 = DIRECTION ( 'NONE',  ( -0.0000000000000000000, 1.000000000000000000, -0.0000000000000000000 ) ) ;
#281 = DIRECTION ( 'NONE',  ( 0.0000000000000000000, -1.000000000000000000, 0.0000000000000000000 ) ) ;
#282 = CARTESIAN_POINT ( 'NONE',  ( 0.0000000000000000000, 9.500000000000063900, 0.0000000000000000000 ) ) ;
#283 = CARTESIAN_POINT ( 'NONE',  ( 1.092997268239012700E-015, 0.0000000000000000000, -8.350000000000001400 ) ) ;
#284 = DIRECTION ( 'NONE',  ( 0.0000000000000000000, -1.000000000000000000, -0.0000000000000000000 ) ) ;
#285 = CARTESIAN_POINT ( 'NONE',  ( 1.092997268239011500E-015, 9.500000000000063900, 8.349999999999980100 ) ) ;
#286 = DIRECTION ( 'NONE',  ( 0.0000000000000000000, 0.0000000000000000000, 1.000000000000000000 ) ) ;
#287 = DIRECTION ( 'NONE',  ( -0.0000000000000000000, 1.000000000000000000, 0.0000000000000000000 ) ) ;
#288 = DIRECTION ( 'NONE',  ( 0.0000000000000000000, -9.130123557772668100E-016, -1.000000000000000000 ) ) ;
#289 = DIRECTION ( 'NONE',  ( 0.0000000000000000000, -1.000000000000000000, 0.0000000000000000000 ) ) ;
#290 = DIRECTION ( 'NONE',  ( 0.0000000000000000000, -1.000000000000000000, -0.0000000000000000000 ) ) ;
#291 = CARTESIAN_POINT ( 'NONE',  ( 0.0000000000000000000, 0.0000000000000000000, 0.0000000000000000000 ) ) ;
#292 = DIRECTION ( 'NONE',  ( 0.0000000000000000000, -0.9510565163015289900, -0.3090169943553258700 ) ) ;
#293 = CARTESIAN_POINT ( 'NONE',  ( 0.0000000000000000000, 9.500000000000000000, -8.350000000000001400 ) ) ;
#294 = CARTESIAN_POINT ( 'NONE',  ( 0.0000000000000000000, 0.0000000000000000000, 0.0000000000000000000 ) ) ;
#295 = DIRECTION ( 'NONE',  ( 0.0000000000000000000, 0.0000000000000000000, 1.000000000000000000 ) ) ;
#296 = DIRECTION ( 'NONE',  ( -0.0000000000000000000, 1.000000000000000000, 0.0000000000000000000 ) ) ;
#297 = CARTESIAN_POINT ( 'NONE',  ( 0.0000000000000000000, 9.500000000000000000, 0.0000000000000000000 ) ) ;
#298 = DIRECTION ( 'NONE',  ( -0.0000000000000000000, 1.000000000000000000, 0.0000000000000000000 ) ) ;
#299 = CARTESIAN_POINT ( 'NONE',  ( 0.0000000000000000000, 0.0000000000000000000, 8.000000000000000000 ) ) ;
#300 = DIRECTION ( 'NONE',  ( 0.0000000000000000000, -5.660676605819054700E-015, 1.000000000000000000 ) ) ;
#301 = DIRECTION ( 'NONE',  ( 0.0000000000000000000, 1.000000000000000000, 0.0000000000000000000 ) ) ;
#302 = CARTESIAN_POINT ( 'NONE',  ( 1.022580077288040100E-015, 9.500000000000000000, 8.350000000000001400 ) ) ;
#303 = DIRECTION ( 'NONE',  ( 3.784366730193855500E-017, -0.9510565163015289900, 0.3090169943553258700 ) ) ;
#304 = PRODUCT ( '107600002Y500A', '107600002Y500A', '', ( #186 ) ) ;
#305 = ADVANCED_FACE ( 'NONE', ( #71 ), #89, .T. ) ;
#306 = ADVANCED_FACE ( 'NONE', ( #121 ), #171, .F. ) ;
#307 = ADVANCED_FACE ( 'NONE', ( #80 ), #129, .T. ) ;
#308 = ADVANCED_FACE ( 'NONE', ( #83 ), #84, .T. ) ;
#309 = ADVANCED_FACE ( 'NONE', ( #69, #155 ), #234, .T. ) ;
#310 = ADVANCED_FACE ( 'NONE', ( #96, #103 ), #226, .T. ) ;
#311 = ADVANCED_FACE ( 'NONE', ( #100 ), #161, .T. ) ;
#312 = ADVANCED_FACE ( 'NONE', ( #91 ), #85, .F. ) ;
#313 = ADVANCED_FACE ( 'NONE', ( #63 ), #82, .T. ) ;
#314 = ADVANCED_FACE ( 'NONE', ( #86 ), #70, .T. ) ;
ENDSEC;
END-ISO-10303-21;
