ISO-10303-21;
HEADER;
FILE_DESCRIPTION (( 'STEP AP214' ),
    '1' );
FILE_NAME ('107400002Y500A.STEP',
    '2013-02-25T17:21:11',
    ( '' ),
    ( '' ),
    'SwSTEP 2.0',
    'SolidWorks 2012',
    '' );
FILE_SCHEMA (( 'AUTOMOTIVE_DESIGN' ));
ENDSEC;

DATA;
#1 = EDGE_CURVE ( 'NONE', #289, #304, #193, .T. ) ;
#2 = EDGE_CURVE ( 'NONE', #187, #267, #299, .T. ) ;
#3 = EDGE_CURVE ( 'NONE', #241, #261, #209, .T. ) ;
#4 = EDGE_CURVE ( 'NONE', #261, #241, #208, .T. ) ;
#5 = EDGE_CURVE ( 'NONE', #304, #262, #199, .T. ) ;
#6 = EDGE_CURVE ( 'NONE', #192, #301, #216, .T. ) ;
#7 = EDGE_CURVE ( 'NONE', #261, #267, #198, .T. ) ;
#8 =( GEOMETRIC_REPRESENTATION_CONTEXT ( 3 ) GLOBAL_UNCERTAINTY_ASSIGNED_CONTEXT ( ( #180 ) ) GLOBAL_UNIT_ASSIGNED_CONTEXT ( ( #158, #156, #155 ) ) REPRESENTATION_CONTEXT ( 'NONE', 'WORKASPACE' ) );
#9 = STYLED_ITEM ( 'NONE', ( #235 ), #182 ) ;
#10 = EDGE_CURVE ( 'NONE', #301, #192, #188, .T. ) ;
#11 = AXIS2_PLACEMENT_3D ( 'NONE', #176, #172, #86 ) ;
#12 = AXIS2_PLACEMENT_3D ( 'NONE', #74, #72, #75 ) ;
#13 = EDGE_CURVE ( 'NONE', #237, #301, #231, .T. ) ;
#14 = EDGE_CURVE ( 'NONE', #296, #237, #194, .T. ) ;
#15 = EDGE_CURVE ( 'NONE', #262, #267, #227, .T. ) ;
#16 = EDGE_CURVE ( 'NONE', #267, #187, #233, .T. ) ;
#17 = AXIS2_PLACEMENT_3D ( 'NONE', #83, #84, #82 ) ;
#18 = AXIS2_PLACEMENT_3D ( 'NONE', #103, #115, #177 ) ;
#19 = PRESENTATION_LAYER_ASSIGNMENT (  '', '', ( #32 ) ) ;
#20 =( GEOMETRIC_REPRESENTATION_CONTEXT ( 3 ) GLOBAL_UNCERTAINTY_ASSIGNED_CONTEXT ( ( #179 ) ) GLOBAL_UNIT_ASSIGNED_CONTEXT ( ( #150, #147, #146 ) ) REPRESENTATION_CONTEXT ( 'NONE', 'WORKASPACE' ) );
#21 = MECHANICAL_DESIGN_GEOMETRIC_PRESENTATION_REPRESENTATION (  '', ( #32 ), #20 ) ;
#22 = AXIS2_PLACEMENT_3D ( 'NONE', #132, #126, #125 ) ;
#23 = AXIS2_PLACEMENT_3D ( 'NONE', #124, #121, #110 ) ;
#24 = AXIS2_PLACEMENT_3D ( 'NONE', #91, #80, #98 ) ;
#25 = AXIS2_PLACEMENT_3D ( 'NONE', #114, #107, #108 ) ;
#26 = EDGE_CURVE ( 'NONE', #241, #187, #291, .T. ) ;
#27 = AXIS2_PLACEMENT_3D ( 'NONE', #92, #93, #94 ) ;
#28 = AXIS2_PLACEMENT_3D ( 'NONE', #89, #87, #90 ) ;
#29 = AXIS2_PLACEMENT_3D ( 'NONE', #68, #128, #71 ) ;
#30 = AXIS2_PLACEMENT_3D ( 'NONE', #112, #143, #66 ) ;
#31 = AXIS2_PLACEMENT_3D ( 'NONE', #139, #109, #88 ) ;
#32 = STYLED_ITEM ( 'NONE', ( #274 ), #181 ) ;
#33 = AXIS2_PLACEMENT_3D ( 'NONE', #120, #122, #113 ) ;
#34 = AXIS2_PLACEMENT_3D ( 'NONE', #59, #58, #60 ) ;
#35 = AXIS2_PLACEMENT_3D ( 'NONE', #142, #169, #162 ) ;
#36 = AXIS2_PLACEMENT_3D ( 'NONE', #111, #129, #116 ) ;
#37 = AXIS2_PLACEMENT_3D ( 'NONE', #130, #61, #63 ) ;
#38 = AXIS2_PLACEMENT_3D ( 'NONE', #67, #99, #70 ) ;
#39 = PRESENTATION_LAYER_ASSIGNMENT (  '', '', ( #9 ) ) ;
#40 = AXIS2_PLACEMENT_3D ( 'NONE', #106, #117, #105 ) ;
#41 =( GEOMETRIC_REPRESENTATION_CONTEXT ( 3 ) GLOBAL_UNCERTAINTY_ASSIGNED_CONTEXT ( ( #183 ) ) GLOBAL_UNIT_ASSIGNED_CONTEXT ( ( #170, #168, #167 ) ) REPRESENTATION_CONTEXT ( 'NONE', 'WORKASPACE' ) );
#42 = AXIS2_PLACEMENT_3D ( 'NONE', #78, #76, #79 ) ;
#43 = EDGE_CURVE ( 'NONE', #265, #289, #230, .T. ) ;
#44 = EDGE_CURVE ( 'NONE', #237, #296, #294, .T. ) ;
#45 = EDGE_CURVE ( 'NONE', #296, #192, #285, .T. ) ;
#46 = EDGE_CURVE ( 'NONE', #304, #187, #284, .T. ) ;
#47 = EDGE_CURVE ( 'NONE', #289, #265, #282, .T. ) ;
#48 = EDGE_CURVE ( 'NONE', #265, #262, #280, .T. ) ;
#49 = EDGE_CURVE ( 'NONE', #262, #304, #286, .T. ) ;
#50 = MECHANICAL_DESIGN_GEOMETRIC_PRESENTATION_REPRESENTATION (  '', ( #9 ), #8 ) ;
#51 = AXIS2_PLACEMENT_3D ( 'NONE', #127, #101, #166 ) ;
#52 = PRODUCT_RELATED_PRODUCT_CATEGORY ( 'part', '', ( #184 ) ) ;
#53 = PRODUCT_DEFINITION_FORMATION_WITH_SPECIFIED_SOURCE ( 'TUTTO', '', #184, .NOT_KNOWN. ) ;
#54 = PRODUCT_DEFINITION ( 'NON CONOSCIUTO', '', #53, #57 ) ;
#55 = AXIS2_PLACEMENT_3D ( 'NONE', #171, #154, #152 ) ;
#56 = PRODUCT_DEFINITION_SHAPE ( 'NONE', 'NONE',  #54 ) ;
#57 = PRODUCT_DEFINITION_CONTEXT ( 'detailed design', #149, 'design' ) ;
#58 = DIRECTION ( 'NONE',  ( 0.0000000000000000000, 1.000000000000000000, 0.0000000000000000000 ) ) ;
#59 = CARTESIAN_POINT ( 'NONE',  ( 0.0000000000000000000, 3.539336068000054100, 0.0000000000000000000 ) ) ;
#60 = DIRECTION ( 'NONE',  ( 0.0000000000000000000, -5.660676605819054700E-015, 1.000000000000000000 ) ) ;
#61 = DIRECTION ( 'NONE',  ( -0.0000000000000000000, 1.000000000000000000, -0.0000000000000000000 ) ) ;
#62 = DIRECTION ( 'NONE',  ( 0.0000000000000000000, -0.9510565163015289900, -0.3090169943553258700 ) ) ;
#63 = DIRECTION ( 'NONE',  ( 0.0000000000000000000, 0.0000000000000000000, -1.000000000000000000 ) ) ;
#64 = DIRECTION ( 'NONE',  ( 0.0000000000000000000, 1.000000000000000000, 0.0000000000000000000 ) ) ;
#65 = CARTESIAN_POINT ( 'NONE',  ( 0.0000000000000000000, 9.500000000000000000, -8.350000000000001400 ) ) ;
#66 = DIRECTION ( 'NONE',  ( 0.0000000000000000000, -9.130123557772668100E-016, -1.000000000000000000 ) ) ;
#67 = CARTESIAN_POINT ( 'NONE',  ( 0.0000000000000000000, 9.500000000000000000, 0.0000000000000000000 ) ) ;
#68 = CARTESIAN_POINT ( 'NONE',  ( 0.0000000000000000000, 9.500000000000000000, 0.0000000000000000000 ) ) ;
#69 = CARTESIAN_POINT ( 'NONE',  ( 1.022580077288040100E-015, 0.0000000000000000000, -8.350000000000001400 ) ) ;
#70 = DIRECTION ( 'NONE',  ( 0.0000000000000000000, 0.0000000000000000000, 1.000000000000000000 ) ) ;
#71 = DIRECTION ( 'NONE',  ( 0.0000000000000000000, 0.0000000000000000000, 1.000000000000000000 ) ) ;
#72 = DIRECTION ( 'NONE',  ( 0.0000000000000000000, 1.000000000000000000, 0.0000000000000000000 ) ) ;
#73 = DIRECTION ( 'NONE',  ( 3.784366730193855500E-017, -0.9510565163015289900, 0.3090169943553258700 ) ) ;
#74 = CARTESIAN_POINT ( 'NONE',  ( 0.0000000000000000000, 0.0000000000000000000, 0.0000000000000000000 ) ) ;
#75 = DIRECTION ( 'NONE',  ( 0.0000000000000000000, 0.0000000000000000000, 1.000000000000000000 ) ) ;
#76 = DIRECTION ( 'NONE',  ( 0.0000000000000000000, -1.000000000000000000, 0.0000000000000000000 ) ) ;
#77 = CARTESIAN_POINT ( 'NONE',  ( 1.022580077288040100E-015, 9.500000000000000000, 8.350000000000001400 ) ) ;
#78 = CARTESIAN_POINT ( 'NONE',  ( 0.0000000000000000000, 5.960663932000001000, 0.0000000000000000000 ) ) ;
#79 = DIRECTION ( 'NONE',  ( 0.0000000000000000000, 0.0000000000000000000, -1.000000000000000000 ) ) ;
#80 = DIRECTION ( 'NONE',  ( -0.0000000000000000000, 1.000000000000000000, 0.0000000000000000000 ) ) ;
#81 = CARTESIAN_POINT ( 'NONE',  ( 0.0000000000000000000, 9.500000000000000000, 8.000000000000000000 ) ) ;
#82 = DIRECTION ( 'NONE',  ( 0.0000000000000000000, -5.660676605819054700E-015, 1.000000000000000000 ) ) ;
#83 = CARTESIAN_POINT ( 'NONE',  ( 0.0000000000000000000, 3.539336068000054100, 0.0000000000000000000 ) ) ;
#84 = DIRECTION ( 'NONE',  ( 0.0000000000000000000, 1.000000000000000000, 0.0000000000000000000 ) ) ;
#85 = DIRECTION ( 'NONE',  ( 3.784366730193853000E-017, 0.9510565163015289900, -0.3090169943553257000 ) ) ;
#86 = DIRECTION ( 'NONE',  ( 0.0000000000000000000, 0.0000000000000000000, -1.000000000000000000 ) ) ;
#87 = DIRECTION ( 'NONE',  ( 0.0000000000000000000, -1.000000000000000000, -0.0000000000000000000 ) ) ;
#88 = DIRECTION ( 'NONE',  ( 0.0000000000000000000, 0.0000000000000000000, 1.000000000000000000 ) ) ;
#89 = CARTESIAN_POINT ( 'NONE',  ( 0.0000000000000000000, 0.0000000000000000000, 0.0000000000000000000 ) ) ;
#90 = DIRECTION ( 'NONE',  ( 0.0000000000000000000, 0.0000000000000000000, 1.000000000000000000 ) ) ;
#91 = CARTESIAN_POINT ( 'NONE',  ( 0.0000000000000000000, 0.0000000000000000000, 0.0000000000000000000 ) ) ;
#92 = CARTESIAN_POINT ( 'NONE',  ( 0.0000000000000000000, 0.0000000000000000000, 0.0000000000000000000 ) ) ;
#93 = DIRECTION ( 'NONE',  ( 0.0000000000000000000, -1.000000000000000000, -0.0000000000000000000 ) ) ;
#94 = DIRECTION ( 'NONE',  ( 0.0000000000000000000, 0.0000000000000000000, 1.000000000000000000 ) ) ;
#95 = CARTESIAN_POINT ( 'NONE',  ( 0.0000000000000000000, 5.960663932000001000, -9.500000000000000000 ) ) ;
#96 = DIRECTION ( 'NONE',  ( 0.0000000000000000000, -1.000000000000000000, 0.0000000000000000000 ) ) ;
#97 = CARTESIAN_POINT ( 'NONE',  ( 9.797174393178825700E-016, 0.0000000000000000000, -8.000000000000000000 ) ) ;
#98 = DIRECTION ( 'NONE',  ( 0.0000000000000000000, 0.0000000000000000000, 1.000000000000000000 ) ) ;
#99 = DIRECTION ( 'NONE',  ( 0.0000000000000000000, 1.000000000000000000, 0.0000000000000000000 ) ) ;
#100 = DIRECTION ( 'NONE',  ( 0.0000000000000000000, 1.000000000000000000, 0.0000000000000000000 ) ) ;
#101 = DIRECTION ( 'NONE',  ( -0.0000000000000000000, -1.000000000000000000, -0.0000000000000000000 ) ) ;
#102 = CARTESIAN_POINT ( 'NONE',  ( 0.0000000000000000000, 0.0000000000000000000, 8.350000000000001400 ) ) ;
#103 = CARTESIAN_POINT ( 'NONE',  ( 0.0000000000000000000, 9.499999999999953800, 0.0000000000000000000 ) ) ;
#104 = PLANE ( 'NONE',  #33 ) ;
#105 = DIRECTION ( 'NONE',  ( 0.0000000000000000000, 0.0000000000000000000, 1.000000000000000000 ) ) ;
#106 = CARTESIAN_POINT ( 'NONE',  ( 0.0000000000000000000, 0.0000000000000000000, 0.0000000000000000000 ) ) ;
#107 = DIRECTION ( 'NONE',  ( 0.0000000000000000000, 1.000000000000000000, 0.0000000000000000000 ) ) ;
#108 = DIRECTION ( 'NONE',  ( 0.0000000000000000000, 0.0000000000000000000, 1.000000000000000000 ) ) ;
#109 = DIRECTION ( 'NONE',  ( -0.0000000000000000000, -1.000000000000000000, -0.0000000000000000000 ) ) ;
#110 = DIRECTION ( 'NONE',  ( 0.0000000000000000000, 0.0000000000000000000, -1.000000000000000000 ) ) ;
#111 = CARTESIAN_POINT ( 'NONE',  ( 0.0000000000000000000, 9.500000000000000000, 0.0000000000000000000 ) ) ;
#112 = CARTESIAN_POINT ( 'NONE',  ( 0.0000000000000000000, 5.960663932000009900, 0.0000000000000000000 ) ) ;
#113 = DIRECTION ( 'NONE',  ( 0.0000000000000000000, 0.0000000000000000000, 1.000000000000000000 ) ) ;
#114 = CARTESIAN_POINT ( 'NONE',  ( 0.0000000000000000000, 0.0000000000000000000, 0.0000000000000000000 ) ) ;
#115 = DIRECTION ( 'NONE',  ( -0.0000000000000000000, 1.000000000000000000, -0.0000000000000000000 ) ) ;
#116 = DIRECTION ( 'NONE',  ( 0.0000000000000000000, 0.0000000000000000000, -1.000000000000000000 ) ) ;
#117 = DIRECTION ( 'NONE',  ( -0.0000000000000000000, 1.000000000000000000, 0.0000000000000000000 ) ) ;
#118 = FILL_AREA_STYLE_COLOUR ( '', #279 ) ;
#119 = PLANE ( 'NONE',  #22 ) ;
#120 = CARTESIAN_POINT ( 'NONE',  ( -8.450200000000000600, 9.500000000000000000, -8.450200000000000600 ) ) ;
#121 = DIRECTION ( 'NONE',  ( 0.0000000000000000000, -1.000000000000000000, 0.0000000000000000000 ) ) ;
#122 = DIRECTION ( 'NONE',  ( 0.0000000000000000000, 1.000000000000000000, 0.0000000000000000000 ) ) ;
#123 = CARTESIAN_POINT ( 'NONE',  ( 1.163414459189985500E-015, 5.960663932000009900, 9.500000000000000000 ) ) ;
#124 = CARTESIAN_POINT ( 'NONE',  ( 0.0000000000000000000, 9.500000000000000000, 0.0000000000000000000 ) ) ;
#125 = DIRECTION ( 'NONE',  ( 0.0000000000000000000, 0.0000000000000000000, -1.000000000000000000 ) ) ;
#126 = DIRECTION ( 'NONE',  ( 0.0000000000000000000, -1.000000000000000000, 0.0000000000000000000 ) ) ;
#127 = CARTESIAN_POINT ( 'NONE',  ( 0.0000000000000000000, 0.0000000000000000000, 0.0000000000000000000 ) ) ;
#128 = DIRECTION ( 'NONE',  ( 0.0000000000000000000, 1.000000000000000000, 0.0000000000000000000 ) ) ;
#129 = DIRECTION ( 'NONE',  ( 0.0000000000000000000, -1.000000000000000000, 0.0000000000000000000 ) ) ;
#130 = CARTESIAN_POINT ( 'NONE',  ( 0.0000000000000000000, 9.499999999999953800, 0.0000000000000000000 ) ) ;
#131 = DIRECTION ( 'NONE',  ( 0.0000000000000000000, 0.9510565163015289900, 0.3090169943553257000 ) ) ;
#132 = CARTESIAN_POINT ( 'NONE',  ( -8.450200000000000600, 0.0000000000000000000, 8.450200000000000600 ) ) ;
#133 = CARTESIAN_POINT ( 'NONE',  ( 0.0000000000000000000, 0.0000000000000000000, 8.000000000000000000 ) ) ;
#134 = CARTESIAN_POINT ( 'NONE',  ( 1.092997268239013900E-015, 9.499999999999953800, 8.350000000000017400 ) ) ;
#135 = CARTESIAN_POINT ( 'NONE',  ( 9.797174393178825700E-016, 9.500000000000000000, -8.000000000000000000 ) ) ;
#136 = CARTESIAN_POINT ( 'NONE',  ( 1.163414459189985500E-015, 3.539336068000054100, 9.500000000000000000 ) ) ;
#137 = CARTESIAN_POINT ( 'NONE',  ( 0.0000000000000000000, 9.499999999999953800, -8.350000000000017400 ) ) ;
#138 = CARTESIAN_POINT ( 'NONE',  ( 0.0000000000000000000, 3.539336068000054100, -9.500000000000000000 ) ) ;
#139 = CARTESIAN_POINT ( 'NONE',  ( 0.0000000000000000000, 0.0000000000000000000, 0.0000000000000000000 ) ) ;
#140 = CARTESIAN_POINT ( 'NONE',  ( 1.163414459189985500E-015, 5.960663932000001000, 9.500000000000000000 ) ) ;
#141 = CARTESIAN_POINT ( 'NONE',  ( 0.0000000000000000000, 5.960663932000001000, -9.500000000000000000 ) ) ;
#142 = CARTESIAN_POINT ( 'NONE',  ( 0.0000000000000000000, 5.960663932000009900, 0.0000000000000000000 ) ) ;
#143 = DIRECTION ( 'NONE',  ( 0.0000000000000000000, -1.000000000000000000, 0.0000000000000000000 ) ) ;
#144 = CARTESIAN_POINT ( 'NONE',  ( 1.092997268239012700E-015, 0.0000000000000000000, -8.350000000000001400 ) ) ;
#145 = CARTESIAN_POINT ( 'NONE',  ( 9.797174393178825700E-016, 0.0000000000000000000, -8.000000000000000000 ) ) ;
#146 =( NAMED_UNIT ( * ) SI_UNIT ( $, .STERADIAN. ) SOLID_ANGLE_UNIT ( ) );
#147 =( NAMED_UNIT ( * ) PLANE_ANGLE_UNIT ( ) SI_UNIT ( $, .RADIAN. ) );
#148 = APPLICATION_PROTOCOL_DEFINITION ( 'draft international standard', 'automotive_design', 1998, #149 ) ;
#149 = APPLICATION_CONTEXT ( 'automotive_design' ) ;
#150 =( LENGTH_UNIT ( ) NAMED_UNIT ( * ) SI_UNIT ( .MILLI., .METRE. ) );
#151 = PRODUCT_CONTEXT ( 'NONE', #164, 'mechanical' ) ;
#152 = DIRECTION ( 'NONE',  ( 1.000000000000000000, 0.0000000000000000000, 0.0000000000000000000 ) ) ;
#153 = SURFACE_STYLE_USAGE ( .BOTH. , #157 ) ;
#154 = DIRECTION ( 'NONE',  ( 0.0000000000000000000, 0.0000000000000000000, 1.000000000000000000 ) ) ;
#155 =( NAMED_UNIT ( * ) SI_UNIT ( $, .STERADIAN. ) SOLID_ANGLE_UNIT ( ) );
#156 =( NAMED_UNIT ( * ) PLANE_ANGLE_UNIT ( ) SI_UNIT ( $, .RADIAN. ) );
#157 = SURFACE_SIDE_STYLE ('',( #275 ) ) ;
#158 =( LENGTH_UNIT ( ) NAMED_UNIT ( * ) SI_UNIT ( .MILLI., .METRE. ) );
#159 = SURFACE_STYLE_USAGE ( .BOTH. , #160 ) ;
#160 = SURFACE_SIDE_STYLE ('',( #246 ) ) ;
#161 = FILL_AREA_STYLE ('',( #163 ) ) ;
#162 = DIRECTION ( 'NONE',  ( 0.0000000000000000000, -9.130123557772668100E-016, -1.000000000000000000 ) ) ;
#163 = FILL_AREA_STYLE_COLOUR ( '', #236 ) ;
#164 = APPLICATION_CONTEXT ( 'automotive_design' ) ;
#165 = APPLICATION_PROTOCOL_DEFINITION ( 'draft international standard', 'automotive_design', 1998, #164 ) ;
#166 = DIRECTION ( 'NONE',  ( 0.0000000000000000000, 0.0000000000000000000, 1.000000000000000000 ) ) ;
#167 =( NAMED_UNIT ( * ) SI_UNIT ( $, .STERADIAN. ) SOLID_ANGLE_UNIT ( ) );
#168 =( NAMED_UNIT ( * ) PLANE_ANGLE_UNIT ( ) SI_UNIT ( $, .RADIAN. ) );
#169 = DIRECTION ( 'NONE',  ( 0.0000000000000000000, -1.000000000000000000, 0.0000000000000000000 ) ) ;
#170 =( LENGTH_UNIT ( ) NAMED_UNIT ( * ) SI_UNIT ( .MILLI., .METRE. ) );
#171 = CARTESIAN_POINT ( 'NONE',  ( 0.0000000000000000000, 0.0000000000000000000, 0.0000000000000000000 ) ) ;
#172 = DIRECTION ( 'NONE',  ( 0.0000000000000000000, -1.000000000000000000, 0.0000000000000000000 ) ) ;
#173 = CARTESIAN_POINT ( 'NONE',  ( 0.0000000000000000000, 0.0000000000000000000, 8.000000000000000000 ) ) ;
#174 = CARTESIAN_POINT ( 'NONE',  ( 0.0000000000000000000, 0.0000000000000000000, 8.350000000000001400 ) ) ;
#175 = DIRECTION ( 'NONE',  ( 0.0000000000000000000, -1.000000000000000000, 0.0000000000000000000 ) ) ;
#176 = CARTESIAN_POINT ( 'NONE',  ( 0.0000000000000000000, 5.960663932000001000, 0.0000000000000000000 ) ) ;
#177 = DIRECTION ( 'NONE',  ( 0.0000000000000000000, 0.0000000000000000000, -1.000000000000000000 ) ) ;
#178 = FILL_AREA_STYLE ('',( #118 ) ) ;
#179 = UNCERTAINTY_MEASURE_WITH_UNIT (LENGTH_MEASURE( 1.000000000000000100E-005 ), #150, 'distance_accuracy_value', 'NONE');
#180 = UNCERTAINTY_MEASURE_WITH_UNIT (LENGTH_MEASURE( 1.000000000000000100E-005 ), #158, 'distance_accuracy_value', 'NONE');
#181 = MANIFOLD_SOLID_BREP ( 'Importato1', #303 ) ;
#182 = ADVANCED_BREP_SHAPE_REPRESENTATION ( '107400002Y500A', ( #181, #55 ), #41 ) ;
#183 = UNCERTAINTY_MEASURE_WITH_UNIT (LENGTH_MEASURE( 1.000000000000000100E-005 ), #170, 'distance_accuracy_value', 'NONE');
#184 = PRODUCT ( '107400002Y500A', '107400002Y500A', '', ( #151 ) ) ;
#185 = EDGE_LOOP ( 'NONE', ( #268, #264, #197, #292 ) ) ;
#186 = EDGE_LOOP ( 'NONE', ( #302, #203, #201, #204 ) ) ;
#187 = VERTEX_POINT ( 'NONE', #136 ) ;
#188 = CIRCLE ( 'NONE', #38, 8.000000000000000000 ) ;
#189 = EDGE_LOOP ( 'NONE', ( #240, #202 ) ) ;
#190 = EDGE_LOOP ( 'NONE', ( #258, #239 ) ) ;
#191 = ORIENTED_EDGE ( 'NONE', *, *, #49, .F. ) ;
#192 = VERTEX_POINT ( 'NONE', #81 ) ;
#193 = LINE ( 'NONE', #77, #211 ) ;
#194 = CIRCLE ( 'NONE', #31, 8.000000000000000000 ) ;
#195 = ORIENTED_EDGE ( 'NONE', *, *, #48, .F. ) ;
#196 = ORIENTED_EDGE ( 'NONE', *, *, #6, .T. ) ;
#197 = ORIENTED_EDGE ( 'NONE', *, *, #2, .F. ) ;
#198 = LINE ( 'NONE', #69, #226 ) ;
#199 = CIRCLE ( 'NONE', #30, 9.500000000000000000 ) ;
#200 = ORIENTED_EDGE ( 'NONE', *, *, #46, .F. ) ;
#201 = ORIENTED_EDGE ( 'NONE', *, *, #2, .T. ) ;
#202 = ORIENTED_EDGE ( 'NONE', *, *, #47, .T. ) ;
#203 = ORIENTED_EDGE ( 'NONE', *, *, #46, .T. ) ;
#204 = ORIENTED_EDGE ( 'NONE', *, *, #15, .F. ) ;
#205 = ORIENTED_EDGE ( 'NONE', *, *, #5, .T. ) ;
#206 = ORIENTED_EDGE ( 'NONE', *, *, #15, .T. ) ;
#207 = ORIENTED_EDGE ( 'NONE', *, *, #10, .T. ) ;
#208 = CIRCLE ( 'NONE', #27, 8.350000000000001400 ) ;
#209 = CIRCLE ( 'NONE', #28, 8.350000000000001400 ) ;
#210 = ORIENTED_EDGE ( 'NONE', *, *, #13, .F. ) ;
#211 = VECTOR ( 'NONE', #73, 1000.000000000000000 ) ;
#212 = ORIENTED_EDGE ( 'NONE', *, *, #45, .T. ) ;
#213 = ORIENTED_EDGE ( 'NONE', *, *, #10, .F. ) ;
#214 = ORIENTED_EDGE ( 'NONE', *, *, #16, .T. ) ;
#215 = ORIENTED_EDGE ( 'NONE', *, *, #45, .F. ) ;
#216 = CIRCLE ( 'NONE', #29, 8.000000000000000000 ) ;
#217 = ORIENTED_EDGE ( 'NONE', *, *, #7, .F. ) ;
#218 = ORIENTED_EDGE ( 'NONE', *, *, #16, .F. ) ;
#219 = ORIENTED_EDGE ( 'NONE', *, *, #13, .T. ) ;
#220 = ORIENTED_EDGE ( 'NONE', *, *, #3, .F. ) ;
#221 = ORIENTED_EDGE ( 'NONE', *, *, #1, .F. ) ;
#222 = ORIENTED_EDGE ( 'NONE', *, *, #26, .T. ) ;
#223 = ORIENTED_EDGE ( 'NONE', *, *, #48, .T. ) ;
#224 = ORIENTED_EDGE ( 'NONE', *, *, #43, .F. ) ;
#225 = ORIENTED_EDGE ( 'NONE', *, *, #14, .F. ) ;
#226 = VECTOR ( 'NONE', #85, 1000.000000000000100 ) ;
#227 = LINE ( 'NONE', #95, #300 ) ;
#228 = VECTOR ( 'NONE', #100, 1000.000000000000000 ) ;
#229 = ORIENTED_EDGE ( 'NONE', *, *, #44, .F. ) ;
#230 = CIRCLE ( 'NONE', #37, 8.350000000000017400 ) ;
#231 = LINE ( 'NONE', #97, #228 ) ;
#232 = ORIENTED_EDGE ( 'NONE', *, *, #44, .T. ) ;
#233 = CIRCLE ( 'NONE', #34, 9.500000000000000000 ) ;
#234 = EDGE_LOOP ( 'NONE', ( #244, #263, #191, #195 ) ) ;
#235 = PRESENTATION_STYLE_ASSIGNMENT (( #159 ) ) ;
#236 = COLOUR_RGB ( '',0.9882352941176471000, 0.8705882352941176600, 0.5490196078431373000 ) ;
#237 = VERTEX_POINT ( 'NONE', #145 ) ;
#238 = ORIENTED_EDGE ( 'NONE', *, *, #6, .F. ) ;
#239 = ORIENTED_EDGE ( 'NONE', *, *, #4, .T. ) ;
#240 = ORIENTED_EDGE ( 'NONE', *, *, #43, .T. ) ;
#241 = VERTEX_POINT ( 'NONE', #174 ) ;
#242 = ORIENTED_EDGE ( 'NONE', *, *, #14, .T. ) ;
#243 = EDGE_LOOP ( 'NONE', ( #200, #205, #206, #214 ) ) ;
#244 = ORIENTED_EDGE ( 'NONE', *, *, #47, .F. ) ;
#245 = CYLINDRICAL_SURFACE ( 'NONE', #11, 9.500000000000000000 ) ;
#246 = SURFACE_STYLE_FILL_AREA ( #161 ) ;
#247 = CYLINDRICAL_SURFACE ( 'NONE', #12, 8.000000000000000000 ) ;
#248 = CONICAL_SURFACE ( 'NONE', #24, 8.350000000000001400, 0.3141592653383478200 ) ;
#249 = FACE_OUTER_BOUND ( 'NONE', #293, .T. ) ;
#250 = CONICAL_SURFACE ( 'NONE', #40, 8.350000000000001400, 0.3141592653383478200 ) ;
#251 = FACE_OUTER_BOUND ( 'NONE', #186, .T. ) ;
#252 = CYLINDRICAL_SURFACE ( 'NONE', #42, 9.500000000000000000 ) ;
#253 = ORIENTED_EDGE ( 'NONE', *, *, #5, .F. ) ;
#254 = FACE_OUTER_BOUND ( 'NONE', #243, .T. ) ;
#255 = CONICAL_SURFACE ( 'NONE', #36, 8.350000000000001400, 0.3141592653383479800 ) ;
#256 = FACE_OUTER_BOUND ( 'NONE', #185, .T. ) ;
#257 = FACE_OUTER_BOUND ( 'NONE', #295, .T. ) ;
#258 = ORIENTED_EDGE ( 'NONE', *, *, #3, .T. ) ;
#259 = CONICAL_SURFACE ( 'NONE', #23, 8.350000000000001400, 0.3141592653383479800 ) ;
#260 = CYLINDRICAL_SURFACE ( 'NONE', #25, 8.000000000000000000 ) ;
#261 = VERTEX_POINT ( 'NONE', #144 ) ;
#262 = VERTEX_POINT ( 'NONE', #141 ) ;
#263 = ORIENTED_EDGE ( 'NONE', *, *, #1, .T. ) ;
#264 = ORIENTED_EDGE ( 'NONE', *, *, #7, .T. ) ;
#265 = VERTEX_POINT ( 'NONE', #137 ) ;
#266 = FACE_OUTER_BOUND ( 'NONE', #297, .T. ) ;
#267 = VERTEX_POINT ( 'NONE', #138 ) ;
#268 = ORIENTED_EDGE ( 'NONE', *, *, #4, .F. ) ;
#269 = SHAPE_DEFINITION_REPRESENTATION ( #56, #182 ) ;
#270 = FACE_OUTER_BOUND ( 'NONE', #298, .T. ) ;
#271 = FACE_OUTER_BOUND ( 'NONE', #234, .T. ) ;
#272 = FACE_OUTER_BOUND ( 'NONE', #189, .T. ) ;
#273 = FACE_BOUND ( 'NONE', #287, .T. ) ;
#274 = PRESENTATION_STYLE_ASSIGNMENT (( #153 ) ) ;
#275 = SURFACE_STYLE_FILL_AREA ( #178 ) ;
#276 = FACE_OUTER_BOUND ( 'NONE', #190, .T. ) ;
#277 = FACE_BOUND ( 'NONE', #288, .T. ) ;
#278 = VECTOR ( 'NONE', #62, 1000.000000000000000 ) ;
#279 = COLOUR_RGB ( '',0.9882352941176471000, 0.8705882352941176600, 0.5490196078431373000 ) ;
#280 = LINE ( 'NONE', #65, #278 ) ;
#281 = VECTOR ( 'NONE', #175, 1000.000000000000000 ) ;
#282 = CIRCLE ( 'NONE', #18, 8.350000000000017400 ) ;
#283 = VECTOR ( 'NONE', #64, 1000.000000000000000 ) ;
#284 = LINE ( 'NONE', #140, #281 ) ;
#285 = LINE ( 'NONE', #173, #283 ) ;
#286 = CIRCLE ( 'NONE', #35, 9.500000000000000000 ) ;
#287 = EDGE_LOOP ( 'NONE', ( #225, #229 ) ) ;
#288 = EDGE_LOOP ( 'NONE', ( #238, #213 ) ) ;
#289 = VERTEX_POINT ( 'NONE', #134 ) ;
#290 = VECTOR ( 'NONE', #131, 1000.000000000000100 ) ;
#291 = LINE ( 'NONE', #102, #290 ) ;
#292 = ORIENTED_EDGE ( 'NONE', *, *, #26, .F. ) ;
#293 = EDGE_LOOP ( 'NONE', ( #210, #232, #212, #196 ) ) ;
#294 = CIRCLE ( 'NONE', #51, 8.000000000000000000 ) ;
#295 = EDGE_LOOP ( 'NONE', ( #217, #220, #222, #218 ) ) ;
#296 = VERTEX_POINT ( 'NONE', #133 ) ;
#297 = EDGE_LOOP ( 'NONE', ( #242, #219, #207, #215 ) ) ;
#298 = EDGE_LOOP ( 'NONE', ( #221, #224, #223, #253 ) ) ;
#299 = CIRCLE ( 'NONE', #17, 9.500000000000000000 ) ;
#300 = VECTOR ( 'NONE', #96, 1000.000000000000000 ) ;
#301 = VERTEX_POINT ( 'NONE', #135 ) ;
#302 = ORIENTED_EDGE ( 'NONE', *, *, #49, .T. ) ;
#303 = CLOSED_SHELL ( 'NONE', ( #309, #306, #310, #312, #313, #307, #305, #308, #311, #314 ) ) ;
#304 = VERTEX_POINT ( 'NONE', #123 ) ;
#305 = ADVANCED_FACE ( 'NONE', ( #273, #276 ), #119, .T. ) ;
#306 = ADVANCED_FACE ( 'NONE', ( #271 ), #259, .T. ) ;
#307 = ADVANCED_FACE ( 'NONE', ( #277, #272 ), #104, .T. ) ;
#308 = ADVANCED_FACE ( 'NONE', ( #270 ), #255, .T. ) ;
#309 = ADVANCED_FACE ( 'NONE', ( #266 ), #260, .F. ) ;
#310 = ADVANCED_FACE ( 'NONE', ( #256 ), #250, .T. ) ;
#311 = ADVANCED_FACE ( 'NONE', ( #257 ), #248, .T. ) ;
#312 = ADVANCED_FACE ( 'NONE', ( #251 ), #252, .T. ) ;
#313 = ADVANCED_FACE ( 'NONE', ( #249 ), #247, .F. ) ;
#314 = ADVANCED_FACE ( 'NONE', ( #254 ), #245, .T. ) ;
ENDSEC;
END-ISO-10303-21;
