ISO-10303-21;
HEADER;
FILE_DESCRIPTION (( 'STEP AP214' ),
    '1' );
FILE_NAME ('107400002Y700A.STEP',
    '2013-02-25T17:21:00',
    ( '' ),
    ( '' ),
    'SwSTEP 2.0',
    'SolidWorks 2012',
    '' );
FILE_SCHEMA (( 'AUTOMOTIVE_DESIGN' ));
ENDSEC;

DATA;
#1 = AXIS2_PLACEMENT_3D ( 'NONE', #147, #146, #148 ) ;
#2 = STYLED_ITEM ( 'NONE', ( #324 ), #195 ) ;
#3 =( GEOMETRIC_REPRESENTATION_CONTEXT ( 3 ) GLOBAL_UNCERTAINTY_ASSIGNED_CONTEXT ( ( #194 ) ) GLOBAL_UNIT_ASSIGNED_CONTEXT ( ( #92, #145, #81 ) ) REPRESENTATION_CONTEXT ( 'NONE', 'WORKASPACE' ) );
#4 = AXIS2_PLACEMENT_3D ( 'NONE', #150, #149, #151 ) ;
#5 = AXIS2_PLACEMENT_3D ( 'NONE', #157, #158, #153 ) ;
#6 = AXIS2_PLACEMENT_3D ( 'NONE', #160, #159, #161 ) ;
#7 = AXIS2_PLACEMENT_3D ( 'NONE', #152, #156, #154 ) ;
#8 = AXIS2_PLACEMENT_3D ( 'NONE', #163, #162, #164 ) ;
#9 = AXIS2_PLACEMENT_3D ( 'NONE', #170, #171, #166 ) ;
#10 = AXIS2_PLACEMENT_3D ( 'NONE', #173, #172, #175 ) ;
#11 = AXIS2_PLACEMENT_3D ( 'NONE', #176, #179, #174 ) ;
#12 = AXIS2_PLACEMENT_3D ( 'NONE', #165, #169, #167 ) ;
#13 =( GEOMETRIC_REPRESENTATION_CONTEXT ( 3 ) GLOBAL_UNCERTAINTY_ASSIGNED_CONTEXT ( ( #193 ) ) GLOBAL_UNIT_ASSIGNED_CONTEXT ( ( #89, #80, #79 ) ) REPRESENTATION_CONTEXT ( 'NONE', 'WORKASPACE' ) );
#14 = MECHANICAL_DESIGN_GEOMETRIC_PRESENTATION_REPRESENTATION (  '', ( #22 ), #13 ) ;
#15 = PRESENTATION_LAYER_ASSIGNMENT (  '', '', ( #22 ) ) ;
#16 = PRODUCT_RELATED_PRODUCT_CATEGORY ( 'part', '', ( #196 ) ) ;
#17 = PRODUCT_DEFINITION_FORMATION_WITH_SPECIFIED_SOURCE ( 'TUTTO', '', #196, .NOT_KNOWN. ) ;
#18 = PRODUCT_DEFINITION ( 'NON CONOSCIUTO', '', #17, #75 ) ;
#19 = AXIS2_PLACEMENT_3D ( 'NONE', #78, #63, #62 ) ;
#20 =( GEOMETRIC_REPRESENTATION_CONTEXT ( 3 ) GLOBAL_UNCERTAINTY_ASSIGNED_CONTEXT ( ( #191 ) ) GLOBAL_UNIT_ASSIGNED_CONTEXT ( ( #66, #65, #64 ) ) REPRESENTATION_CONTEXT ( 'NONE', 'WORKASPACE' ) );
#21 = MECHANICAL_DESIGN_GEOMETRIC_PRESENTATION_REPRESENTATION (  '', ( #2 ), #20 ) ;
#22 = STYLED_ITEM ( 'NONE', ( #302 ), #192 ) ;
#23 = AXIS2_PLACEMENT_3D ( 'NONE', #131, #130, #129 ) ;
#24 = AXIS2_PLACEMENT_3D ( 'NONE', #125, #124, #98 ) ;
#25 = AXIS2_PLACEMENT_3D ( 'NONE', #82, #77, #76 ) ;
#26 = AXIS2_PLACEMENT_3D ( 'NONE', #94, #93, #87 ) ;
#27 = AXIS2_PLACEMENT_3D ( 'NONE', #110, #107, #99 ) ;
#28 = AXIS2_PLACEMENT_3D ( 'NONE', #115, #116, #114 ) ;
#29 = AXIS2_PLACEMENT_3D ( 'NONE', #123, #120, #119 ) ;
#30 = AXIS2_PLACEMENT_3D ( 'NONE', #127, #122, #121 ) ;
#31 = AXIS2_PLACEMENT_3D ( 'NONE', #137, #136, #134 ) ;
#32 = AXIS2_PLACEMENT_3D ( 'NONE', #142, #141, #144 ) ;
#33 = AXIS2_PLACEMENT_3D ( 'NONE', #113, #132, #184 ) ;
#34 = AXIS2_PLACEMENT_3D ( 'NONE', #106, #108, #109 ) ;
#35 = AXIS2_PLACEMENT_3D ( 'NONE', #102, #105, #103 ) ;
#36 = AXIS2_PLACEMENT_3D ( 'NONE', #95, #96, #97 ) ;
#37 = EDGE_CURVE ( 'NONE', #209, #221, #260, .T. ) ;
#38 = EDGE_CURVE ( 'NONE', #215, #226, #204, .T. ) ;
#39 = EDGE_CURVE ( 'NONE', #203, #209, #265, .T. ) ;
#40 = EDGE_CURVE ( 'NONE', #208, #220, #276, .T. ) ;
#41 = EDGE_CURVE ( 'NONE', #210, #221, #273, .T. ) ;
#42 = EDGE_CURVE ( 'NONE', #203, #210, #275, .T. ) ;
#43 = EDGE_CURVE ( 'NONE', #261, #205, #279, .T. ) ;
#44 = EDGE_CURVE ( 'NONE', #226, #210, #285, .T. ) ;
#45 = EDGE_CURVE ( 'NONE', #205, #228, #286, .T. ) ;
#46 = EDGE_CURVE ( 'NONE', #228, #215, #289, .T. ) ;
#47 = EDGE_CURVE ( 'NONE', #213, #215, #268, .T. ) ;
#48 = EDGE_CURVE ( 'NONE', #213, #261, #297, .T. ) ;
#49 = EDGE_CURVE ( 'NONE', #220, #212, #283, .T. ) ;
#50 = EDGE_CURVE ( 'NONE', #200, #212, #287, .T. ) ;
#51 = EDGE_CURVE ( 'NONE', #212, #200, #288, .T. ) ;
#52 = EDGE_CURVE ( 'NONE', #209, #203, #277, .T. ) ;
#53 = EDGE_CURVE ( 'NONE', #228, #221, #282, .T. ) ;
#54 = EDGE_CURVE ( 'NONE', #226, #205, #296, .T. ) ;
#55 = EDGE_CURVE ( 'NONE', #221, #210, #294, .T. ) ;
#56 = EDGE_CURVE ( 'NONE', #261, #213, #293, .T. ) ;
#57 = EDGE_CURVE ( 'NONE', #208, #200, #292, .T. ) ;
#58 = EDGE_CURVE ( 'NONE', #220, #208, #291, .T. ) ;
#59 = PRESENTATION_LAYER_ASSIGNMENT (  '', '', ( #2 ) ) ;
#60 = APPLICATION_PROTOCOL_DEFINITION ( 'draft international standard', 'automotive_design', 1998, #61 ) ;
#61 = APPLICATION_CONTEXT ( 'automotive_design' ) ;
#62 = DIRECTION ( 'NONE',  ( 1.000000000000000000, 0.0000000000000000000, 0.0000000000000000000 ) ) ;
#63 = DIRECTION ( 'NONE',  ( 0.0000000000000000000, 0.0000000000000000000, 1.000000000000000000 ) ) ;
#64 =( NAMED_UNIT ( * ) SI_UNIT ( $, .STERADIAN. ) SOLID_ANGLE_UNIT ( ) );
#65 =( NAMED_UNIT ( * ) PLANE_ANGLE_UNIT ( ) SI_UNIT ( $, .RADIAN. ) );
#66 =( LENGTH_UNIT ( ) NAMED_UNIT ( * ) SI_UNIT ( .MILLI., .METRE. ) );
#67 = PRODUCT_CONTEXT ( 'NONE', #70, 'mechanical' ) ;
#68 = SURFACE_STYLE_USAGE ( .BOTH. , #69 ) ;
#69 = SURFACE_SIDE_STYLE ('',( #318 ) ) ;
#70 = APPLICATION_CONTEXT ( 'automotive_design' ) ;
#71 = APPLICATION_PROTOCOL_DEFINITION ( 'draft international standard', 'automotive_design', 1998, #70 ) ;
#72 = FILL_AREA_STYLE_COLOUR ( '', #323 ) ;
#73 = FILL_AREA_STYLE ('',( #72 ) ) ;
#74 = PRODUCT_DEFINITION_SHAPE ( 'NONE', 'NONE',  #18 ) ;
#75 = PRODUCT_DEFINITION_CONTEXT ( 'detailed design', #61, 'design' ) ;
#76 = DIRECTION ( 'NONE',  ( 0.0000000000000000000, -5.121564548122002500E-015, 1.000000000000000000 ) ) ;
#77 = DIRECTION ( 'NONE',  ( 0.0000000000000000000, 1.000000000000000000, 0.0000000000000000000 ) ) ;
#78 = CARTESIAN_POINT ( 'NONE',  ( 0.0000000000000000000, 0.0000000000000000000, 0.0000000000000000000 ) ) ;
#79 =( NAMED_UNIT ( * ) SI_UNIT ( $, .STERADIAN. ) SOLID_ANGLE_UNIT ( ) );
#80 =( NAMED_UNIT ( * ) PLANE_ANGLE_UNIT ( ) SI_UNIT ( $, .RADIAN. ) );
#81 =( NAMED_UNIT ( * ) SI_UNIT ( $, .STERADIAN. ) SOLID_ANGLE_UNIT ( ) );
#82 = CARTESIAN_POINT ( 'NONE',  ( 0.0000000000000000000, 3.539336068000054100, 0.0000000000000000000 ) ) ;
#83 = DIRECTION ( 'NONE',  ( 0.0000000000000000000, 1.000000000000000000, 0.0000000000000000000 ) ) ;
#84 = CARTESIAN_POINT ( 'NONE',  ( 1.145044757202775600E-015, 0.0000000000000000000, -9.350000000000003200 ) ) ;
#85 = CARTESIAN_POINT ( 'NONE',  ( 0.0000000000000000000, 0.0000000000000000000, 9.350000000000003200 ) ) ;
#86 = CARTESIAN_POINT ( 'NONE',  ( 1.102182119232617900E-015, 0.0000000000000000000, -9.000000000000001800 ) ) ;
#87 = DIRECTION ( 'NONE',  ( 0.0000000000000000000, 4.378111629846228300E-015, -1.000000000000000000 ) ) ;
#88 = CARTESIAN_POINT ( 'NONE',  ( -9.350000000000003200, 10.00000000000000200, 1.145044757202775600E-015 ) ) ;
#89 =( LENGTH_UNIT ( ) NAMED_UNIT ( * ) SI_UNIT ( .MILLI., .METRE. ) );
#90 = SURFACE_STYLE_USAGE ( .BOTH. , #91 ) ;
#91 = SURFACE_SIDE_STYLE ('',( #301 ) ) ;
#92 =( LENGTH_UNIT ( ) NAMED_UNIT ( * ) SI_UNIT ( .MILLI., .METRE. ) );
#93 = DIRECTION ( 'NONE',  ( 0.0000000000000000000, -1.000000000000000000, 0.0000000000000000000 ) ) ;
#94 = CARTESIAN_POINT ( 'NONE',  ( 0.0000000000000000000, 6.460663931999954800, 0.0000000000000000000 ) ) ;
#95 = CARTESIAN_POINT ( 'NONE',  ( 0.0000000000000000000, 6.460663931999954800, 0.0000000000000000000 ) ) ;
#96 = DIRECTION ( 'NONE',  ( 0.0000000000000000000, -1.000000000000000000, 0.0000000000000000000 ) ) ;
#97 = DIRECTION ( 'NONE',  ( 0.0000000000000000000, 4.378111629846228300E-015, -1.000000000000000000 ) ) ;
#98 = DIRECTION ( 'NONE',  ( 1.000000000000000000, 0.0000000000000000000, 0.0000000000000000000 ) ) ;
#99 = DIRECTION ( 'NONE',  ( 0.0000000000000000000, 0.0000000000000000000, 1.000000000000000000 ) ) ;
#100 = CARTESIAN_POINT ( 'NONE',  ( 0.0000000000000000000, 10.00000000000000000, 9.000000000000001800 ) ) ;
#101 = DIRECTION ( 'NONE',  ( 0.0000000000000000000, 0.9510565163015289900, 0.3090169943553257000 ) ) ;
#102 = CARTESIAN_POINT ( 'NONE',  ( 0.0000000000000000000, 0.0000000000000000000, 0.0000000000000000000 ) ) ;
#103 = DIRECTION ( 'NONE',  ( 0.0000000000000000000, 0.0000000000000000000, 1.000000000000000000 ) ) ;
#104 = DIRECTION ( 'NONE',  ( 3.784366730193853000E-017, 0.9510565163015289900, -0.3090169943553257000 ) ) ;
#105 = DIRECTION ( 'NONE',  ( 0.0000000000000000000, -1.000000000000000000, -0.0000000000000000000 ) ) ;
#106 = CARTESIAN_POINT ( 'NONE',  ( 0.0000000000000000000, 0.0000000000000000000, 0.0000000000000000000 ) ) ;
#107 = DIRECTION ( 'NONE',  ( 0.0000000000000000000, -1.000000000000000000, -0.0000000000000000000 ) ) ;
#108 = DIRECTION ( 'NONE',  ( -0.0000000000000000000, -1.000000000000000000, -0.0000000000000000000 ) ) ;
#109 = DIRECTION ( 'NONE',  ( 0.0000000000000000000, 0.0000000000000000000, 1.000000000000000000 ) ) ;
#110 = CARTESIAN_POINT ( 'NONE',  ( 0.0000000000000000000, 0.0000000000000000000, 0.0000000000000000000 ) ) ;
#111 = CARTESIAN_POINT ( 'NONE',  ( 0.0000000000000000000, 6.460663932000001000, -10.50000000000000000 ) ) ;
#112 = CARTESIAN_POINT ( 'NONE',  ( 9.350000000000003200, 9.999999999999998200, 0.0000000000000000000 ) ) ;
#113 = CARTESIAN_POINT ( 'NONE',  ( 0.0000000000000000000, 3.539336068000054100, 0.0000000000000000000 ) ) ;
#114 = DIRECTION ( 'NONE',  ( 0.0000000000000000000, 0.0000000000000000000, 1.000000000000000000 ) ) ;
#115 = CARTESIAN_POINT ( 'NONE',  ( 0.0000000000000000000, 10.00000000000000000, 0.0000000000000000000 ) ) ;
#116 = DIRECTION ( 'NONE',  ( 0.0000000000000000000, 1.000000000000000000, 0.0000000000000000000 ) ) ;
#117 = DIRECTION ( 'NONE',  ( 0.0000000000000000000, -1.000000000000000000, 0.0000000000000000000 ) ) ;
#118 = CARTESIAN_POINT ( 'NONE',  ( 1.285879139104720800E-015, 6.460663932000001000, 10.50000000000000000 ) ) ;
#119 = DIRECTION ( 'NONE',  ( 0.0000000000000000000, 0.0000000000000000000, 1.000000000000000000 ) ) ;
#120 = DIRECTION ( 'NONE',  ( 0.0000000000000000000, 1.000000000000000000, 0.0000000000000000000 ) ) ;
#121 = DIRECTION ( 'NONE',  ( 1.000000000000000000, 0.0000000000000000000, 0.0000000000000000000 ) ) ;
#122 = DIRECTION ( 'NONE',  ( 9.276596128218218600E-017, 1.000000000000000000, -0.0000000000000000000 ) ) ;
#123 = CARTESIAN_POINT ( 'NONE',  ( 0.0000000000000000000, 10.00000000000000000, 0.0000000000000000000 ) ) ;
#124 = DIRECTION ( 'NONE',  ( 9.276596128218218600E-017, 1.000000000000000000, -0.0000000000000000000 ) ) ;
#125 = CARTESIAN_POINT ( 'NONE',  ( 8.046164540243350500E-031, 10.00000000000000900, 0.0000000000000000000 ) ) ;
#126 = CARTESIAN_POINT ( 'NONE',  ( 1.102182119232617900E-015, 0.0000000000000000000, -9.000000000000001800 ) ) ;
#127 = CARTESIAN_POINT ( 'NONE',  ( 8.046164540243350500E-031, 10.00000000000000900, 0.0000000000000000000 ) ) ;
#128 = CARTESIAN_POINT ( 'NONE',  ( 0.0000000000000000000, 0.0000000000000000000, 9.000000000000001800 ) ) ;
#129 = DIRECTION ( 'NONE',  ( 0.0000000000000000000, 0.0000000000000000000, 1.000000000000000000 ) ) ;
#130 = DIRECTION ( 'NONE',  ( -0.0000000000000000000, -1.000000000000000000, -0.0000000000000000000 ) ) ;
#131 = CARTESIAN_POINT ( 'NONE',  ( 0.0000000000000000000, 0.0000000000000000000, 0.0000000000000000000 ) ) ;
#132 = DIRECTION ( 'NONE',  ( 0.0000000000000000000, 1.000000000000000000, 0.0000000000000000000 ) ) ;
#133 = DIRECTION ( 'NONE',  ( 0.0000000000000000000, -1.000000000000000000, 0.0000000000000000000 ) ) ;
#134 = DIRECTION ( 'NONE',  ( 0.0000000000000000000, 4.378111629846228300E-015, -1.000000000000000000 ) ) ;
#135 = DIRECTION ( 'NONE',  ( 0.0000000000000000000, 1.000000000000000000, 0.0000000000000000000 ) ) ;
#136 = DIRECTION ( 'NONE',  ( 0.0000000000000000000, -1.000000000000000000, 0.0000000000000000000 ) ) ;
#137 = CARTESIAN_POINT ( 'NONE',  ( 0.0000000000000000000, 6.460663931999954800, 0.0000000000000000000 ) ) ;
#138 = CARTESIAN_POINT ( 'NONE',  ( 1.102182119232617900E-015, 10.00000000000000000, -9.000000000000001800 ) ) ;
#139 = FILL_AREA_STYLE_COLOUR ( '', #278 ) ;
#140 = FILL_AREA_STYLE ('',( #139 ) ) ;
#141 = DIRECTION ( 'NONE',  ( 0.0000000000000000000, -1.000000000000000000, 0.0000000000000000000 ) ) ;
#142 = CARTESIAN_POINT ( 'NONE',  ( 0.0000000000000000000, 6.460663931999954800, 0.0000000000000000000 ) ) ;
#143 = DIRECTION ( 'NONE',  ( -0.3090169943553258700, -0.9510565163015289900, 3.784366730193854300E-017 ) ) ;
#144 = DIRECTION ( 'NONE',  ( 0.0000000000000000000, 4.378111629846228300E-015, -1.000000000000000000 ) ) ;
#145 =( NAMED_UNIT ( * ) PLANE_ANGLE_UNIT ( ) SI_UNIT ( $, .RADIAN. ) );
#146 = DIRECTION ( 'NONE',  ( 0.0000000000000000000, -1.000000000000000000, 0.0000000000000000000 ) ) ;
#147 = CARTESIAN_POINT ( 'NONE',  ( 0.0000000000000000000, 6.460663932000001000, 0.0000000000000000000 ) ) ;
#148 = DIRECTION ( 'NONE',  ( 0.0000000000000000000, 0.0000000000000000000, -1.000000000000000000 ) ) ;
#149 = DIRECTION ( 'NONE',  ( -9.276596128218218600E-017, -1.000000000000000000, 0.0000000000000000000 ) ) ;
#150 = CARTESIAN_POINT ( 'NONE',  ( 0.0000000000000000000, 10.00000000000000000, 0.0000000000000000000 ) ) ;
#151 = DIRECTION ( 'NONE',  ( 1.000000000000000000, -1.855319225643643200E-016, 0.0000000000000000000 ) ) ;
#152 = CARTESIAN_POINT ( 'NONE',  ( 0.0000000000000000000, 0.0000000000000000000, 0.0000000000000000000 ) ) ;
#153 = DIRECTION ( 'NONE',  ( 0.0000000000000000000, 0.0000000000000000000, -1.000000000000000000 ) ) ;
#154 = DIRECTION ( 'NONE',  ( 0.0000000000000000000, 0.0000000000000000000, 1.000000000000000000 ) ) ;
#155 = PLANE ( 'NONE',  #5 ) ;
#156 = DIRECTION ( 'NONE',  ( -0.0000000000000000000, 1.000000000000000000, 0.0000000000000000000 ) ) ;
#157 = CARTESIAN_POINT ( 'NONE',  ( -9.462200000000001100, 0.0000000000000000000, 9.462200000000001100 ) ) ;
#158 = DIRECTION ( 'NONE',  ( 0.0000000000000000000, -1.000000000000000000, 0.0000000000000000000 ) ) ;
#159 = DIRECTION ( 'NONE',  ( 0.0000000000000000000, 1.000000000000000000, 0.0000000000000000000 ) ) ;
#160 = CARTESIAN_POINT ( 'NONE',  ( 0.0000000000000000000, 0.0000000000000000000, 0.0000000000000000000 ) ) ;
#161 = DIRECTION ( 'NONE',  ( 0.0000000000000000000, 0.0000000000000000000, 1.000000000000000000 ) ) ;
#162 = DIRECTION ( 'NONE',  ( -9.276596128218218600E-017, -1.000000000000000000, 0.0000000000000000000 ) ) ;
#163 = CARTESIAN_POINT ( 'NONE',  ( 0.0000000000000000000, 10.00000000000000000, 0.0000000000000000000 ) ) ;
#164 = DIRECTION ( 'NONE',  ( 1.000000000000000000, -1.855319225643643200E-016, 0.0000000000000000000 ) ) ;
#165 = CARTESIAN_POINT ( 'NONE',  ( 0.0000000000000000000, 0.0000000000000000000, 0.0000000000000000000 ) ) ;
#166 = DIRECTION ( 'NONE',  ( 0.0000000000000000000, 0.0000000000000000000, 1.000000000000000000 ) ) ;
#167 = DIRECTION ( 'NONE',  ( 0.0000000000000000000, 0.0000000000000000000, 1.000000000000000000 ) ) ;
#168 = PLANE ( 'NONE',  #9 ) ;
#169 = DIRECTION ( 'NONE',  ( -0.0000000000000000000, 1.000000000000000000, 0.0000000000000000000 ) ) ;
#170 = CARTESIAN_POINT ( 'NONE',  ( -9.462200000000001100, 10.00000000000000000, -9.462200000000001100 ) ) ;
#171 = DIRECTION ( 'NONE',  ( 0.0000000000000000000, 1.000000000000000000, 0.0000000000000000000 ) ) ;
#172 = DIRECTION ( 'NONE',  ( 0.0000000000000000000, 1.000000000000000000, 0.0000000000000000000 ) ) ;
#173 = CARTESIAN_POINT ( 'NONE',  ( 0.0000000000000000000, 0.0000000000000000000, 0.0000000000000000000 ) ) ;
#174 = DIRECTION ( 'NONE',  ( 0.0000000000000000000, 0.0000000000000000000, -1.000000000000000000 ) ) ;
#175 = DIRECTION ( 'NONE',  ( 0.0000000000000000000, 0.0000000000000000000, 1.000000000000000000 ) ) ;
#176 = CARTESIAN_POINT ( 'NONE',  ( 0.0000000000000000000, 6.460663932000001000, 0.0000000000000000000 ) ) ;
#177 = CARTESIAN_POINT ( 'NONE',  ( 9.349999999999999600, 10.00000000000000900, 0.0000000000000000000 ) ) ;
#178 = CARTESIAN_POINT ( 'NONE',  ( 0.0000000000000000000, 6.460663932000001000, -10.49999999999999800 ) ) ;
#179 = DIRECTION ( 'NONE',  ( 0.0000000000000000000, -1.000000000000000000, 0.0000000000000000000 ) ) ;
#180 = CARTESIAN_POINT ( 'NONE',  ( 1.285879139104721000E-015, 6.460663931999954800, 10.50000000000000000 ) ) ;
#181 = CARTESIAN_POINT ( 'NONE',  ( 0.0000000000000000000, 0.0000000000000000000, 9.000000000000001800 ) ) ;
#182 = CARTESIAN_POINT ( 'NONE',  ( -10.50000000000001600, 6.460663931999954800, 1.285879139104722800E-015 ) ) ;
#183 = CARTESIAN_POINT ( 'NONE',  ( -9.349999999999999600, 10.00000000000000900, 1.215461948153748200E-015 ) ) ;
#184 = DIRECTION ( 'NONE',  ( 0.0000000000000000000, -5.121564548122002500E-015, 1.000000000000000000 ) ) ;
#185 = CARTESIAN_POINT ( 'NONE',  ( 0.0000000000000000000, 3.539336068000054100, -10.50000000000000000 ) ) ;
#186 = DIRECTION ( 'NONE',  ( 0.3090169943553256500, -0.9510565163015291000, 0.0000000000000000000 ) ) ;
#187 = CARTESIAN_POINT ( 'NONE',  ( 1.285879139104721000E-015, 3.539336068000054100, 10.50000000000000000 ) ) ;
#188 = CARTESIAN_POINT ( 'NONE',  ( 10.50000000000001400, 6.460663931999954800, 0.0000000000000000000 ) ) ;
#189 = CARTESIAN_POINT ( 'NONE',  ( 0.0000000000000000000, 0.0000000000000000000, 9.350000000000003200 ) ) ;
#190 = CARTESIAN_POINT ( 'NONE',  ( 1.215461948153748200E-015, 0.0000000000000000000, -9.350000000000003200 ) ) ;
#191 = UNCERTAINTY_MEASURE_WITH_UNIT (LENGTH_MEASURE( 1.000000000000000100E-005 ), #66, 'distance_accuracy_value', 'NONE');
#192 = MANIFOLD_SOLID_BREP ( 'Importato1', #274 ) ;
#193 = UNCERTAINTY_MEASURE_WITH_UNIT (LENGTH_MEASURE( 1.000000000000000100E-005 ), #89, 'distance_accuracy_value', 'NONE');
#194 = UNCERTAINTY_MEASURE_WITH_UNIT (LENGTH_MEASURE( 1.000000000000000100E-005 ), #92, 'distance_accuracy_value', 'NONE');
#195 = ADVANCED_BREP_SHAPE_REPRESENTATION ( '107400002Y700A', ( #192, #19 ), #3 ) ;
#196 = PRODUCT ( '107400002Y700A', '107400002Y700A', '', ( #67 ) ) ;
#197 = EDGE_LOOP ( 'NONE', ( #255, #256, #250, #246 ) ) ;
#198 = ORIENTED_EDGE ( 'NONE', *, *, #57, .F. ) ;
#199 = ORIENTED_EDGE ( 'NONE', *, *, #48, .T. ) ;
#200 = VERTEX_POINT ( 'NONE', #138 ) ;
#201 = EDGE_LOOP ( 'NONE', ( #229, #232 ) ) ;
#202 = ORIENTED_EDGE ( 'NONE', *, *, #56, .T. ) ;
#203 = VERTEX_POINT ( 'NONE', #190 ) ;
#204 = CIRCLE ( 'NONE', #36, 10.49999999999999800 ) ;
#205 = VERTEX_POINT ( 'NONE', #188 ) ;
#206 = ORIENTED_EDGE ( 'NONE', *, *, #54, .F. ) ;
#207 = EDGE_LOOP ( 'NONE', ( #269, #251, #267, #263 ) ) ;
#208 = VERTEX_POINT ( 'NONE', #126 ) ;
#209 = VERTEX_POINT ( 'NONE', #189 ) ;
#210 = VERTEX_POINT ( 'NONE', #185 ) ;
#211 = EDGE_LOOP ( 'NONE', ( #248, #243, #238, #241, #262 ) ) ;
#212 = VERTEX_POINT ( 'NONE', #100 ) ;
#213 = VERTEX_POINT ( 'NONE', #183 ) ;
#214 = EDGE_LOOP ( 'NONE', ( #266, #258, #235, #206, #234 ) ) ;
#215 = VERTEX_POINT ( 'NONE', #182 ) ;
#216 = EDGE_LOOP ( 'NONE', ( #237, #259, #254, #224 ) ) ;
#217 = EDGE_LOOP ( 'NONE', ( #271, #233 ) ) ;
#218 = EDGE_LOOP ( 'NONE', ( #249, #244, #245, #242, #247 ) ) ;
#219 = EDGE_LOOP ( 'NONE', ( #202, #199 ) ) ;
#220 = VERTEX_POINT ( 'NONE', #181 ) ;
#221 = VERTEX_POINT ( 'NONE', #187 ) ;
#222 = EDGE_LOOP ( 'NONE', ( #198, #239, #225, #227 ) ) ;
#223 = ORIENTED_EDGE ( 'NONE', *, *, #48, .F. ) ;
#224 = ORIENTED_EDGE ( 'NONE', *, *, #41, .F. ) ;
#225 = ORIENTED_EDGE ( 'NONE', *, *, #49, .T. ) ;
#226 = VERTEX_POINT ( 'NONE', #178 ) ;
#227 = ORIENTED_EDGE ( 'NONE', *, *, #51, .T. ) ;
#228 = VERTEX_POINT ( 'NONE', #180 ) ;
#229 = ORIENTED_EDGE ( 'NONE', *, *, #52, .T. ) ;
#230 = EDGE_LOOP ( 'NONE', ( #223, #257, #264, #252, #253 ) ) ;
#231 = EDGE_LOOP ( 'NONE', ( #236, #240 ) ) ;
#232 = ORIENTED_EDGE ( 'NONE', *, *, #39, .T. ) ;
#233 = ORIENTED_EDGE ( 'NONE', *, *, #50, .F. ) ;
#234 = ORIENTED_EDGE ( 'NONE', *, *, #38, .F. ) ;
#235 = ORIENTED_EDGE ( 'NONE', *, *, #43, .T. ) ;
#236 = ORIENTED_EDGE ( 'NONE', *, *, #58, .F. ) ;
#237 = ORIENTED_EDGE ( 'NONE', *, *, #42, .F. ) ;
#238 = ORIENTED_EDGE ( 'NONE', *, *, #38, .T. ) ;
#239 = ORIENTED_EDGE ( 'NONE', *, *, #40, .T. ) ;
#240 = ORIENTED_EDGE ( 'NONE', *, *, #40, .F. ) ;
#241 = ORIENTED_EDGE ( 'NONE', *, *, #44, .T. ) ;
#242 = ORIENTED_EDGE ( 'NONE', *, *, #55, .T. ) ;
#243 = ORIENTED_EDGE ( 'NONE', *, *, #46, .T. ) ;
#244 = ORIENTED_EDGE ( 'NONE', *, *, #45, .T. ) ;
#245 = ORIENTED_EDGE ( 'NONE', *, *, #53, .T. ) ;
#246 = ORIENTED_EDGE ( 'NONE', *, *, #37, .F. ) ;
#247 = ORIENTED_EDGE ( 'NONE', *, *, #44, .F. ) ;
#248 = ORIENTED_EDGE ( 'NONE', *, *, #53, .F. ) ;
#249 = ORIENTED_EDGE ( 'NONE', *, *, #54, .T. ) ;
#250 = ORIENTED_EDGE ( 'NONE', *, *, #55, .F. ) ;
#251 = ORIENTED_EDGE ( 'NONE', *, *, #57, .T. ) ;
#252 = ORIENTED_EDGE ( 'NONE', *, *, #45, .F. ) ;
#253 = ORIENTED_EDGE ( 'NONE', *, *, #43, .F. ) ;
#254 = ORIENTED_EDGE ( 'NONE', *, *, #37, .T. ) ;
#255 = ORIENTED_EDGE ( 'NONE', *, *, #39, .F. ) ;
#256 = ORIENTED_EDGE ( 'NONE', *, *, #42, .T. ) ;
#257 = ORIENTED_EDGE ( 'NONE', *, *, #47, .T. ) ;
#258 = ORIENTED_EDGE ( 'NONE', *, *, #56, .F. ) ;
#259 = ORIENTED_EDGE ( 'NONE', *, *, #52, .F. ) ;
#260 = LINE ( 'NONE', #85, #284 ) ;
#261 = VERTEX_POINT ( 'NONE', #177 ) ;
#262 = ORIENTED_EDGE ( 'NONE', *, *, #41, .T. ) ;
#263 = ORIENTED_EDGE ( 'NONE', *, *, #49, .F. ) ;
#264 = ORIENTED_EDGE ( 'NONE', *, *, #46, .F. ) ;
#265 = CIRCLE ( 'NONE', #35, 9.350000000000003200 ) ;
#266 = ORIENTED_EDGE ( 'NONE', *, *, #47, .F. ) ;
#267 = ORIENTED_EDGE ( 'NONE', *, *, #50, .T. ) ;
#268 = LINE ( 'NONE', #88, #272 ) ;
#269 = ORIENTED_EDGE ( 'NONE', *, *, #58, .T. ) ;
#270 = VECTOR ( 'NONE', #104, 1000.000000000000100 ) ;
#271 = ORIENTED_EDGE ( 'NONE', *, *, #51, .F. ) ;
#272 = VECTOR ( 'NONE', #143, 1000.000000000000100 ) ;
#273 = CIRCLE ( 'NONE', #33, 10.49999999999999800 ) ;
#274 = CLOSED_SHELL ( 'NONE', ( #330, #329, #328, #334, #326, #327, #331, #333, #332, #325 ) ) ;
#275 = LINE ( 'NONE', #84, #270 ) ;
#276 = CIRCLE ( 'NONE', #34, 9.000000000000001800 ) ;
#277 = CIRCLE ( 'NONE', #27, 9.350000000000003200 ) ;
#278 = COLOUR_RGB ( '',0.9882352941176471000, 0.8705882352941176600, 0.5490196078431373000 ) ;
#279 = LINE ( 'NONE', #112, #280 ) ;
#280 = VECTOR ( 'NONE', #186, 1000.000000000000000 ) ;
#281 = VECTOR ( 'NONE', #133, 1000.000000000000000 ) ;
#282 = LINE ( 'NONE', #118, #295 ) ;
#283 = LINE ( 'NONE', #128, #290 ) ;
#284 = VECTOR ( 'NONE', #101, 1000.000000000000100 ) ;
#285 = LINE ( 'NONE', #111, #281 ) ;
#286 = CIRCLE ( 'NONE', #32, 10.49999999999999800 ) ;
#287 = CIRCLE ( 'NONE', #29, 9.000000000000001800 ) ;
#288 = CIRCLE ( 'NONE', #28, 9.000000000000001800 ) ;
#289 = CIRCLE ( 'NONE', #31, 10.49999999999999800 ) ;
#290 = VECTOR ( 'NONE', #135, 1000.000000000000000 ) ;
#291 = CIRCLE ( 'NONE', #23, 9.000000000000001800 ) ;
#292 = LINE ( 'NONE', #86, #298 ) ;
#293 = CIRCLE ( 'NONE', #24, 9.349999999999999600 ) ;
#294 = CIRCLE ( 'NONE', #25, 10.49999999999999800 ) ;
#295 = VECTOR ( 'NONE', #117, 1000.000000000000000 ) ;
#296 = CIRCLE ( 'NONE', #26, 10.49999999999999800 ) ;
#297 = CIRCLE ( 'NONE', #30, 9.349999999999999600 ) ;
#298 = VECTOR ( 'NONE', #83, 1000.000000000000000 ) ;
#299 = FACE_OUTER_BOUND ( 'NONE', #222, .T. ) ;
#300 = FACE_BOUND ( 'NONE', #217, .T. ) ;
#301 = SURFACE_STYLE_FILL_AREA ( #140 ) ;
#302 = PRESENTATION_STYLE_ASSIGNMENT (( #90 ) ) ;
#303 = FACE_OUTER_BOUND ( 'NONE', #211, .T. ) ;
#304 = CYLINDRICAL_SURFACE ( 'NONE', #10, 9.000000000000001800 ) ;
#305 = FACE_OUTER_BOUND ( 'NONE', #214, .T. ) ;
#306 = CYLINDRICAL_SURFACE ( 'NONE', #11, 10.50000000000000000 ) ;
#307 = FACE_OUTER_BOUND ( 'NONE', #197, .T. ) ;
#308 = FACE_OUTER_BOUND ( 'NONE', #230, .T. ) ;
#309 = FACE_OUTER_BOUND ( 'NONE', #219, .T. ) ;
#310 = FACE_OUTER_BOUND ( 'NONE', #216, .T. ) ;
#311 = CYLINDRICAL_SURFACE ( 'NONE', #6, 9.000000000000001800 ) ;
#312 = FACE_OUTER_BOUND ( 'NONE', #207, .T. ) ;
#313 = CONICAL_SURFACE ( 'NONE', #12, 9.350000000000003200, 0.3141592653383478200 ) ;
#314 = FACE_BOUND ( 'NONE', #231, .T. ) ;
#315 = CONICAL_SURFACE ( 'NONE', #8, 9.350000000000003200, 0.3141592653383478700 ) ;
#316 = FACE_OUTER_BOUND ( 'NONE', #201, .T. ) ;
#317 = SHAPE_DEFINITION_REPRESENTATION ( #74, #195 ) ;
#318 = SURFACE_STYLE_FILL_AREA ( #73 ) ;
#319 = CYLINDRICAL_SURFACE ( 'NONE', #1, 10.50000000000000000 ) ;
#320 = FACE_OUTER_BOUND ( 'NONE', #218, .T. ) ;
#321 = CONICAL_SURFACE ( 'NONE', #7, 9.350000000000003200, 0.3141592653383478200 ) ;
#322 = CONICAL_SURFACE ( 'NONE', #4, 9.350000000000003200, 0.3141592653383478700 ) ;
#323 = COLOUR_RGB ( '',0.9882352941176471000, 0.8705882352941176600, 0.5490196078431373000 ) ;
#324 = PRESENTATION_STYLE_ASSIGNMENT (( #68 ) ) ;
#325 = ADVANCED_FACE ( 'NONE', ( #303 ), #306, .T. ) ;
#326 = ADVANCED_FACE ( 'NONE', ( #299 ), #304, .F. ) ;
#327 = ADVANCED_FACE ( 'NONE', ( #300, #309 ), #168, .T. ) ;
#328 = ADVANCED_FACE ( 'NONE', ( #307 ), #313, .T. ) ;
#329 = ADVANCED_FACE ( 'NONE', ( #308 ), #315, .T. ) ;
#330 = ADVANCED_FACE ( 'NONE', ( #312 ), #311, .F. ) ;
#331 = ADVANCED_FACE ( 'NONE', ( #314, #316 ), #155, .T. ) ;
#332 = ADVANCED_FACE ( 'NONE', ( #310 ), #321, .T. ) ;
#333 = ADVANCED_FACE ( 'NONE', ( #305 ), #322, .T. ) ;
#334 = ADVANCED_FACE ( 'NONE', ( #320 ), #319, .T. ) ;
ENDSEC;
END-ISO-10303-21;
