ISO-10303-21;
HEADER;
FILE_DESCRIPTION (( 'STEP AP214' ),
    '1' );
FILE_NAME ('107600002Y700A.STEP',
    '2013-02-25T17:24:55',
    ( '' ),
    ( '' ),
    'SwSTEP 2.0',
    'SolidWorks 2012',
    '' );
FILE_SCHEMA (( 'AUTOMOTIVE_DESIGN' ));
ENDSEC;

DATA;
#1 = MECHANICAL_DESIGN_GEOMETRIC_PRESENTATION_REPRESENTATION (  '', ( #3 ), #18 ) ;
#2 = PRESENTATION_LAYER_ASSIGNMENT (  '', '', ( #3 ) ) ;
#3 = STYLED_ITEM ( 'NONE', ( #91 ), #58 ) ;
#4 = AXIS2_PLACEMENT_3D ( 'NONE', #301, #228, #300 ) ;
#5 = AXIS2_PLACEMENT_3D ( 'NONE', #242, #245, #243 ) ;
#6 =( GEOMETRIC_REPRESENTATION_CONTEXT ( 3 ) GLOBAL_UNCERTAINTY_ASSIGNED_CONTEXT ( ( #59 ) ) GLOBAL_UNIT_ASSIGNED_CONTEXT ( ( #263, #232, #262 ) ) REPRESENTATION_CONTEXT ( 'NONE', 'WORKASPACE' ) );
#7 = AXIS2_PLACEMENT_3D ( 'NONE', #237, #241, #236 ) ;
#8 = AXIS2_PLACEMENT_3D ( 'NONE', #224, #209, #223 ) ;
#9 = AXIS2_PLACEMENT_3D ( 'NONE', #248, #230, #235 ) ;
#10 = AXIS2_PLACEMENT_3D ( 'NONE', #204, #211, #229 ) ;
#11 = AXIS2_PLACEMENT_3D ( 'NONE', #191, #290, #216 ) ;
#12 = AXIS2_PLACEMENT_3D ( 'NONE', #254, #255, #251 ) ;
#13 = AXIS2_PLACEMENT_3D ( 'NONE', #256, #238, #220 ) ;
#14 = PRODUCT_RELATED_PRODUCT_CATEGORY ( 'part', '', ( #304 ) ) ;
#15 = PRODUCT_DEFINITION_FORMATION_WITH_SPECIFIED_SOURCE ( 'TUTTO', '', #304, .NOT_KNOWN. ) ;
#16 = PRODUCT_DEFINITION ( 'NON CONOSCIUTO', '', #15, #56 ) ;
#17 = AXIS2_PLACEMENT_3D ( 'NONE', #264, #189, #190 ) ;
#18 =( GEOMETRIC_REPRESENTATION_CONTEXT ( 3 ) GLOBAL_UNCERTAINTY_ASSIGNED_CONTEXT ( ( #61 ) ) GLOBAL_UNIT_ASSIGNED_CONTEXT ( ( #240, #187, #186 ) ) REPRESENTATION_CONTEXT ( 'NONE', 'WORKASPACE' ) );
#19 = AXIS2_PLACEMENT_3D ( 'NONE', #217, #269, #193 ) ;
#20 =( GEOMETRIC_REPRESENTATION_CONTEXT ( 3 ) GLOBAL_UNCERTAINTY_ASSIGNED_CONTEXT ( ( #62 ) ) GLOBAL_UNIT_ASSIGNED_CONTEXT ( ( #260, #206, #215 ) ) REPRESENTATION_CONTEXT ( 'NONE', 'WORKASPACE' ) );
#21 = MECHANICAL_DESIGN_GEOMETRIC_PRESENTATION_REPRESENTATION (  '', ( #23 ), #20 ) ;
#22 = PRESENTATION_LAYER_ASSIGNMENT (  '', '', ( #23 ) ) ;
#23 = STYLED_ITEM ( 'NONE', ( #92 ), #60 ) ;
#24 = AXIS2_PLACEMENT_3D ( 'NONE', #197, #270, #271 ) ;
#25 = AXIS2_PLACEMENT_3D ( 'NONE', #276, #272, #273 ) ;
#26 = AXIS2_PLACEMENT_3D ( 'NONE', #278, #218, #281 ) ;
#27 = AXIS2_PLACEMENT_3D ( 'NONE', #285, #286, #289 ) ;
#28 = AXIS2_PLACEMENT_3D ( 'NONE', #282, #283, #284 ) ;
#29 = AXIS2_PLACEMENT_3D ( 'NONE', #287, #288, #198 ) ;
#30 = EDGE_CURVE ( 'NONE', #154, #73, #161, .T. ) ;
#31 = AXIS2_PLACEMENT_3D ( 'NONE', #250, #195, #194 ) ;
#32 = AXIS2_PLACEMENT_3D ( 'NONE', #302, #303, #225 ) ;
#33 = AXIS2_PLACEMENT_3D ( 'NONE', #295, #296, #297 ) ;
#34 = AXIS2_PLACEMENT_3D ( 'NONE', #268, #291, #292 ) ;
#35 = AXIS2_PLACEMENT_3D ( 'NONE', #208, #212, #219 ) ;
#36 = AXIS2_PLACEMENT_3D ( 'NONE', #266, #239, #183 ) ;
#37 = EDGE_CURVE ( 'NONE', #174, #72, #63, .T. ) ;
#38 = EDGE_CURVE ( 'NONE', #154, #127, #176, .T. ) ;
#39 = EDGE_CURVE ( 'NONE', #68, #137, #177, .T. ) ;
#40 = EDGE_CURVE ( 'NONE', #127, #129, #117, .T. ) ;
#41 = EDGE_CURVE ( 'NONE', #115, #137, #153, .T. ) ;
#42 = EDGE_CURVE ( 'NONE', #73, #154, #145, .T. ) ;
#43 = EDGE_CURVE ( 'NONE', #73, #129, #102, .T. ) ;
#44 = EDGE_CURVE ( 'NONE', #144, #72, #138, .T. ) ;
#45 = EDGE_CURVE ( 'NONE', #144, #71, #132, .T. ) ;
#46 = EDGE_CURVE ( 'NONE', #71, #174, #86, .T. ) ;
#47 = EDGE_CURVE ( 'NONE', #72, #174, #106, .T. ) ;
#48 = EDGE_CURVE ( 'NONE', #70, #115, #95, .T. ) ;
#49 = EDGE_CURVE ( 'NONE', #71, #144, #168, .T. ) ;
#50 = EDGE_CURVE ( 'NONE', #70, #68, #110, .T. ) ;
#51 = EDGE_CURVE ( 'NONE', #129, #127, #93, .T. ) ;
#52 = EDGE_CURVE ( 'NONE', #115, #129, #113, .T. ) ;
#53 = EDGE_CURVE ( 'NONE', #137, #127, #123, .T. ) ;
#54 = EDGE_CURVE ( 'NONE', #137, #115, #125, .T. ) ;
#55 = EDGE_CURVE ( 'NONE', #68, #70, #126, .T. ) ;
#56 = PRODUCT_DEFINITION_CONTEXT ( 'detailed design', #184, 'design' ) ;
#57 = PRODUCT_DEFINITION_SHAPE ( 'NONE', 'NONE',  #16 ) ;
#58 = ADVANCED_BREP_SHAPE_REPRESENTATION ( '107600002Y700A', ( #60, #17 ), #6 ) ;
#59 = UNCERTAINTY_MEASURE_WITH_UNIT (LENGTH_MEASURE( 1.000000000000000100E-005 ), #263, 'distance_accuracy_value', 'NONE');
#60 = MANIFOLD_SOLID_BREP ( 'Importato1', #107 ) ;
#61 = UNCERTAINTY_MEASURE_WITH_UNIT (LENGTH_MEASURE( 1.000000000000000100E-005 ), #240, 'distance_accuracy_value', 'NONE');
#62 = UNCERTAINTY_MEASURE_WITH_UNIT (LENGTH_MEASURE( 1.000000000000000100E-005 ), #260, 'distance_accuracy_value', 'NONE');
#63 = CIRCLE ( 'NONE', #35, 9.000000000000001800 ) ;
#64 = FACE_OUTER_BOUND ( 'NONE', #83, .T. ) ;
#65 = FACE_OUTER_BOUND ( 'NONE', #84, .T. ) ;
#66 = EDGE_LOOP ( 'NONE', ( #150, #160, #158, #167 ) ) ;
#67 = FACE_OUTER_BOUND ( 'NONE', #87, .T. ) ;
#68 = VERTEX_POINT ( 'NONE', #275 ) ;
#69 = COLOUR_RGB ( '',1.000000000000000000, 1.000000000000000000, 1.000000000000000000 ) ;
#70 = VERTEX_POINT ( 'NONE', #185 ) ;
#71 = VERTEX_POINT ( 'NONE', #261 ) ;
#72 = VERTEX_POINT ( 'NONE', #207 ) ;
#73 = VERTEX_POINT ( 'NONE', #201 ) ;
#74 = CYLINDRICAL_SURFACE ( 'NONE', #4, 9.000000000000001800 ) ;
#75 = CYLINDRICAL_SURFACE ( 'NONE', #12, 10.50000000000000000 ) ;
#76 = EDGE_LOOP ( 'NONE', ( #118, #90, #172, #147 ) ) ;
#77 = EDGE_LOOP ( 'NONE', ( #114, #112 ) ) ;
#78 = EDGE_LOOP ( 'NONE', ( #111, #109 ) ) ;
#79 = EDGE_LOOP ( 'NONE', ( #155, #175, #163, #151 ) ) ;
#80 = EDGE_LOOP ( 'NONE', ( #130, #116 ) ) ;
#81 = EDGE_LOOP ( 'NONE', ( #101, #134, #94, #131 ) ) ;
#82 = EDGE_LOOP ( 'NONE', ( #148, #103, #173, #156 ) ) ;
#83 = EDGE_LOOP ( 'NONE', ( #169, #146, #170, #159 ) ) ;
#84 = EDGE_LOOP ( 'NONE', ( #157, #152, #133, #141 ) ) ;
#85 = EDGE_LOOP ( 'NONE', ( #108, #105 ) ) ;
#86 = LINE ( 'NONE', #196, #96 ) ;
#87 = EDGE_LOOP ( 'NONE', ( #104, #99, #98, #88 ) ) ;
#88 = ORIENTED_EDGE ( 'NONE', *, *, #47, .T. ) ;
#89 = FACE_BOUND ( 'NONE', #78, .T. ) ;
#90 = ORIENTED_EDGE ( 'NONE', *, *, #39, .T. ) ;
#91 = PRESENTATION_STYLE_ASSIGNMENT (( #249 ) ) ;
#92 = PRESENTATION_STYLE_ASSIGNMENT (( #280 ) ) ;
#93 = CIRCLE ( 'NONE', #26, 10.49999999999999800 ) ;
#94 = ORIENTED_EDGE ( 'NONE', *, *, #37, .T. ) ;
#95 = LINE ( 'NONE', #192, #97 ) ;
#96 = VECTOR ( 'NONE', #226, 1000.000000000000000 ) ;
#97 = VECTOR ( 'NONE', #252, 1000.000000000000100 ) ;
#98 = ORIENTED_EDGE ( 'NONE', *, *, #44, .T. ) ;
#99 = ORIENTED_EDGE ( 'NONE', *, *, #49, .T. ) ;
#100 = VECTOR ( 'NONE', #294, 1000.000000000000100 ) ;
#101 = ORIENTED_EDGE ( 'NONE', *, *, #45, .T. ) ;
#102 = LINE ( 'NONE', #293, #100 ) ;
#103 = ORIENTED_EDGE ( 'NONE', *, *, #43, .T. ) ;
#104 = ORIENTED_EDGE ( 'NONE', *, *, #46, .F. ) ;
#105 = ORIENTED_EDGE ( 'NONE', *, *, #55, .T. ) ;
#106 = CIRCLE ( 'NONE', #29, 9.000000000000001800 ) ;
#107 = CLOSED_SHELL ( 'NONE', ( #313, #314, #311, #306, #310, #309, #308, #305, #307, #312 ) ) ;
#108 = ORIENTED_EDGE ( 'NONE', *, *, #50, .T. ) ;
#109 = ORIENTED_EDGE ( 'NONE', *, *, #37, .F. ) ;
#110 = CIRCLE ( 'NONE', #27, 9.349999999999999600 ) ;
#111 = ORIENTED_EDGE ( 'NONE', *, *, #47, .F. ) ;
#112 = ORIENTED_EDGE ( 'NONE', *, *, #42, .T. ) ;
#113 = LINE ( 'NONE', #277, #122 ) ;
#114 = ORIENTED_EDGE ( 'NONE', *, *, #30, .T. ) ;
#115 = VERTEX_POINT ( 'NONE', #257 ) ;
#116 = ORIENTED_EDGE ( 'NONE', *, *, #49, .F. ) ;
#117 = CIRCLE ( 'NONE', #34, 10.49999999999999800 ) ;
#118 = ORIENTED_EDGE ( 'NONE', *, *, #55, .F. ) ;
#119 = SURFACE_STYLE_FILL_AREA ( #274 ) ;
#120 = FACE_OUTER_BOUND ( 'NONE', #79, .T. ) ;
#121 = FACE_BOUND ( 'NONE', #80, .T. ) ;
#122 = VECTOR ( 'NONE', #200, 1000.000000000000000 ) ;
#123 = LINE ( 'NONE', #279, #128 ) ;
#124 = COLOUR_RGB ( '',1.000000000000000000, 1.000000000000000000, 1.000000000000000000 ) ;
#125 = CIRCLE ( 'NONE', #25, 10.49999999999999800 ) ;
#126 = CIRCLE ( 'NONE', #24, 9.349999999999999600 ) ;
#127 = VERTEX_POINT ( 'NONE', #246 ) ;
#128 = VECTOR ( 'NONE', #259, 1000.000000000000000 ) ;
#129 = VERTEX_POINT ( 'NONE', #203 ) ;
#130 = ORIENTED_EDGE ( 'NONE', *, *, #45, .F. ) ;
#131 = ORIENTED_EDGE ( 'NONE', *, *, #44, .F. ) ;
#132 = CIRCLE ( 'NONE', #31, 9.000000000000001800 ) ;
#133 = ORIENTED_EDGE ( 'NONE', *, *, #48, .T. ) ;
#134 = ORIENTED_EDGE ( 'NONE', *, *, #46, .T. ) ;
#135 = SURFACE_STYLE_FILL_AREA ( #244 ) ;
#136 = CONICAL_SURFACE ( 'NONE', #10, 9.350000000000003200, 0.3141592653383478700 ) ;
#137 = VERTEX_POINT ( 'NONE', #247 ) ;
#138 = LINE ( 'NONE', #299, #179 ) ;
#139 = VECTOR ( 'NONE', #221, 1000.000000000000000 ) ;
#140 = CONICAL_SURFACE ( 'NONE', #19, 9.350000000000003200, 0.3141592653383478700 ) ;
#141 = ORIENTED_EDGE ( 'NONE', *, *, #54, .F. ) ;
#142 = FACE_OUTER_BOUND ( 'NONE', #81, .T. ) ;
#143 = CONICAL_SURFACE ( 'NONE', #8, 9.350000000000003200, 0.3141592653383478200 ) ;
#144 = VERTEX_POINT ( 'NONE', #202 ) ;
#145 = CIRCLE ( 'NONE', #32, 9.350000000000003200 ) ;
#146 = ORIENTED_EDGE ( 'NONE', *, *, #30, .F. ) ;
#147 = ORIENTED_EDGE ( 'NONE', *, *, #48, .F. ) ;
#148 = ORIENTED_EDGE ( 'NONE', *, *, #42, .F. ) ;
#149 = VECTOR ( 'NONE', #214, 1000.000000000000100 ) ;
#150 = ORIENTED_EDGE ( 'NONE', *, *, #53, .F. ) ;
#151 = ORIENTED_EDGE ( 'NONE', *, *, #52, .F. ) ;
#152 = ORIENTED_EDGE ( 'NONE', *, *, #50, .F. ) ;
#153 = CIRCLE ( 'NONE', #33, 10.49999999999999800 ) ;
#154 = VERTEX_POINT ( 'NONE', #258 ) ;
#155 = ORIENTED_EDGE ( 'NONE', *, *, #41, .T. ) ;
#156 = ORIENTED_EDGE ( 'NONE', *, *, #38, .F. ) ;
#157 = ORIENTED_EDGE ( 'NONE', *, *, #39, .F. ) ;
#158 = ORIENTED_EDGE ( 'NONE', *, *, #52, .T. ) ;
#159 = ORIENTED_EDGE ( 'NONE', *, *, #51, .F. ) ;
#160 = ORIENTED_EDGE ( 'NONE', *, *, #54, .T. ) ;
#161 = CIRCLE ( 'NONE', #36, 9.350000000000003200 ) ;
#162 = FACE_OUTER_BOUND ( 'NONE', #76, .T. ) ;
#163 = ORIENTED_EDGE ( 'NONE', *, *, #40, .T. ) ;
#164 = SHAPE_DEFINITION_REPRESENTATION ( #57, #58 ) ;
#165 = FACE_OUTER_BOUND ( 'NONE', #77, .T. ) ;
#166 = CYLINDRICAL_SURFACE ( 'NONE', #7, 9.000000000000001800 ) ;
#167 = ORIENTED_EDGE ( 'NONE', *, *, #51, .T. ) ;
#168 = CIRCLE ( 'NONE', #28, 9.000000000000001800 ) ;
#169 = ORIENTED_EDGE ( 'NONE', *, *, #43, .F. ) ;
#170 = ORIENTED_EDGE ( 'NONE', *, *, #38, .T. ) ;
#171 = FACE_OUTER_BOUND ( 'NONE', #85, .T. ) ;
#172 = ORIENTED_EDGE ( 'NONE', *, *, #41, .F. ) ;
#173 = ORIENTED_EDGE ( 'NONE', *, *, #40, .F. ) ;
#174 = VERTEX_POINT ( 'NONE', #253 ) ;
#175 = ORIENTED_EDGE ( 'NONE', *, *, #53, .T. ) ;
#176 = LINE ( 'NONE', #205, #149 ) ;
#177 = LINE ( 'NONE', #227, #139 ) ;
#178 = FACE_OUTER_BOUND ( 'NONE', #66, .T. ) ;
#179 = VECTOR ( 'NONE', #298, 1000.000000000000000 ) ;
#180 = CYLINDRICAL_SURFACE ( 'NONE', #5, 10.50000000000000000 ) ;
#181 = FACE_OUTER_BOUND ( 'NONE', #82, .T. ) ;
#182 = CONICAL_SURFACE ( 'NONE', #13, 9.350000000000003200, 0.3141592653383478200 ) ;
#183 = DIRECTION ( 'NONE',  ( 0.0000000000000000000, 0.0000000000000000000, 1.000000000000000000 ) ) ;
#184 = APPLICATION_CONTEXT ( 'automotive_design' ) ;
#185 = CARTESIAN_POINT ( 'NONE',  ( 0.0000000000000000000, 10.00000000000000900, -9.349999999999999600 ) ) ;
#186 =( NAMED_UNIT ( * ) SI_UNIT ( $, .STERADIAN. ) SOLID_ANGLE_UNIT ( ) );
#187 =( NAMED_UNIT ( * ) PLANE_ANGLE_UNIT ( ) SI_UNIT ( $, .RADIAN. ) );
#188 = PLANE ( 'NONE',  #11 ) ;
#189 = DIRECTION ( 'NONE',  ( 0.0000000000000000000, 0.0000000000000000000, 1.000000000000000000 ) ) ;
#190 = DIRECTION ( 'NONE',  ( 1.000000000000000000, 0.0000000000000000000, 0.0000000000000000000 ) ) ;
#191 = CARTESIAN_POINT ( 'NONE',  ( -9.462200000000001100, 0.0000000000000000000, 9.462200000000001100 ) ) ;
#192 = CARTESIAN_POINT ( 'NONE',  ( 0.0000000000000000000, 10.00000000000000200, -9.350000000000003200 ) ) ;
#193 = DIRECTION ( 'NONE',  ( 0.0000000000000000000, 1.855319225643643200E-016, -1.000000000000000000 ) ) ;
#194 = DIRECTION ( 'NONE',  ( 0.0000000000000000000, 0.0000000000000000000, 1.000000000000000000 ) ) ;
#195 = DIRECTION ( 'NONE',  ( 0.0000000000000000000, -1.000000000000000000, -0.0000000000000000000 ) ) ;
#196 = CARTESIAN_POINT ( 'NONE',  ( 1.102182119232617900E-015, 0.0000000000000000000, -9.000000000000001800 ) ) ;
#197 = CARTESIAN_POINT ( 'NONE',  ( 0.0000000000000000000, 10.00000000000000900, 8.046164540057790600E-031 ) ) ;
#198 = DIRECTION ( 'NONE',  ( 0.0000000000000000000, 0.0000000000000000000, 1.000000000000000000 ) ) ;
#199 = FILL_AREA_STYLE_COLOUR ( '', #124 ) ;
#200 = DIRECTION ( 'NONE',  ( 0.0000000000000000000, -1.000000000000000000, 0.0000000000000000000 ) ) ;
#201 = CARTESIAN_POINT ( 'NONE',  ( 1.215461948153748200E-015, 0.0000000000000000000, -9.350000000000003200 ) ) ;
#202 = CARTESIAN_POINT ( 'NONE',  ( 0.0000000000000000000, 0.0000000000000000000, 9.000000000000001800 ) ) ;
#203 = CARTESIAN_POINT ( 'NONE',  ( 0.0000000000000000000, 3.539336068000054100, -10.50000000000000000 ) ) ;
#204 = CARTESIAN_POINT ( 'NONE',  ( 0.0000000000000000000, 10.00000000000000000, 0.0000000000000000000 ) ) ;
#205 = CARTESIAN_POINT ( 'NONE',  ( 0.0000000000000000000, 0.0000000000000000000, 9.350000000000003200 ) ) ;
#206 =( NAMED_UNIT ( * ) PLANE_ANGLE_UNIT ( ) SI_UNIT ( $, .RADIAN. ) );
#207 = CARTESIAN_POINT ( 'NONE',  ( 0.0000000000000000000, 10.00000000000000000, 9.000000000000001800 ) ) ;
#208 = CARTESIAN_POINT ( 'NONE',  ( 0.0000000000000000000, 10.00000000000000000, 0.0000000000000000000 ) ) ;
#209 = DIRECTION ( 'NONE',  ( -0.0000000000000000000, 1.000000000000000000, 0.0000000000000000000 ) ) ;
#210 = SURFACE_SIDE_STYLE ('',( #119 ) ) ;
#211 = DIRECTION ( 'NONE',  ( -0.0000000000000000000, -1.000000000000000000, -9.276596128218218600E-017 ) ) ;
#212 = DIRECTION ( 'NONE',  ( -0.0000000000000000000, 1.000000000000000000, 0.0000000000000000000 ) ) ;
#213 = APPLICATION_PROTOCOL_DEFINITION ( 'draft international standard', 'automotive_design', 1998, #184 ) ;
#214 = DIRECTION ( 'NONE',  ( 0.0000000000000000000, 0.9510565163015289900, 0.3090169943553257000 ) ) ;
#215 =( NAMED_UNIT ( * ) SI_UNIT ( $, .STERADIAN. ) SOLID_ANGLE_UNIT ( ) );
#216 = DIRECTION ( 'NONE',  ( 0.0000000000000000000, 0.0000000000000000000, -1.000000000000000000 ) ) ;
#217 = CARTESIAN_POINT ( 'NONE',  ( 0.0000000000000000000, 10.00000000000000000, 0.0000000000000000000 ) ) ;
#218 = DIRECTION ( 'NONE',  ( 0.0000000000000000000, 1.000000000000000000, 0.0000000000000000000 ) ) ;
#219 = DIRECTION ( 'NONE',  ( 0.0000000000000000000, 0.0000000000000000000, 1.000000000000000000 ) ) ;
#220 = DIRECTION ( 'NONE',  ( 0.0000000000000000000, 0.0000000000000000000, 1.000000000000000000 ) ) ;
#221 = DIRECTION ( 'NONE',  ( 3.784366730193854300E-017, -0.9510565163015291000, 0.3090169943553256500 ) ) ;
#222 = APPLICATION_CONTEXT ( 'automotive_design' ) ;
#223 = DIRECTION ( 'NONE',  ( 0.0000000000000000000, 0.0000000000000000000, 1.000000000000000000 ) ) ;
#224 = CARTESIAN_POINT ( 'NONE',  ( 0.0000000000000000000, 0.0000000000000000000, 0.0000000000000000000 ) ) ;
#225 = DIRECTION ( 'NONE',  ( 0.0000000000000000000, 0.0000000000000000000, 1.000000000000000000 ) ) ;
#226 = DIRECTION ( 'NONE',  ( -0.0000000000000000000, 1.000000000000000000, 0.0000000000000000000 ) ) ;
#227 = CARTESIAN_POINT ( 'NONE',  ( 1.145044757202775600E-015, 9.999999999999998200, 9.350000000000003200 ) ) ;
#228 = DIRECTION ( 'NONE',  ( -0.0000000000000000000, 1.000000000000000000, 0.0000000000000000000 ) ) ;
#229 = DIRECTION ( 'NONE',  ( 0.0000000000000000000, 1.855319225643643200E-016, -1.000000000000000000 ) ) ;
#230 = DIRECTION ( 'NONE',  ( 0.0000000000000000000, 1.000000000000000000, 0.0000000000000000000 ) ) ;
#231 = PLANE ( 'NONE',  #9 ) ;
#232 =( NAMED_UNIT ( * ) PLANE_ANGLE_UNIT ( ) SI_UNIT ( $, .RADIAN. ) );
#233 = FILL_AREA_STYLE_COLOUR ( '', #69 ) ;
#234 = SURFACE_SIDE_STYLE ('',( #135 ) ) ;
#235 = DIRECTION ( 'NONE',  ( 0.0000000000000000000, 0.0000000000000000000, 1.000000000000000000 ) ) ;
#236 = DIRECTION ( 'NONE',  ( 0.0000000000000000000, 0.0000000000000000000, 1.000000000000000000 ) ) ;
#237 = CARTESIAN_POINT ( 'NONE',  ( 0.0000000000000000000, 0.0000000000000000000, 0.0000000000000000000 ) ) ;
#238 = DIRECTION ( 'NONE',  ( -0.0000000000000000000, 1.000000000000000000, 0.0000000000000000000 ) ) ;
#239 = DIRECTION ( 'NONE',  ( 0.0000000000000000000, -1.000000000000000000, -0.0000000000000000000 ) ) ;
#240 =( LENGTH_UNIT ( ) NAMED_UNIT ( * ) SI_UNIT ( .MILLI., .METRE. ) );
#241 = DIRECTION ( 'NONE',  ( -0.0000000000000000000, 1.000000000000000000, 0.0000000000000000000 ) ) ;
#242 = CARTESIAN_POINT ( 'NONE',  ( 0.0000000000000000000, 6.460663932000001000, 0.0000000000000000000 ) ) ;
#243 = DIRECTION ( 'NONE',  ( 0.0000000000000000000, 0.0000000000000000000, -1.000000000000000000 ) ) ;
#244 = FILL_AREA_STYLE ('',( #233 ) ) ;
#245 = DIRECTION ( 'NONE',  ( 0.0000000000000000000, -1.000000000000000000, 0.0000000000000000000 ) ) ;
#246 = CARTESIAN_POINT ( 'NONE',  ( 1.285879139104721000E-015, 3.539336068000054100, 10.50000000000000000 ) ) ;
#247 = CARTESIAN_POINT ( 'NONE',  ( 1.285879139104721000E-015, 6.460663931999954800, 10.50000000000000000 ) ) ;
#248 = CARTESIAN_POINT ( 'NONE',  ( -9.462200000000001100, 10.00000000000000000, -9.462200000000001100 ) ) ;
#249 = SURFACE_STYLE_USAGE ( .BOTH. , #234 ) ;
#250 = CARTESIAN_POINT ( 'NONE',  ( 0.0000000000000000000, 0.0000000000000000000, 0.0000000000000000000 ) ) ;
#251 = DIRECTION ( 'NONE',  ( 0.0000000000000000000, 0.0000000000000000000, -1.000000000000000000 ) ) ;
#252 = DIRECTION ( 'NONE',  ( 0.0000000000000000000, -0.9510565163015289900, -0.3090169943553258700 ) ) ;
#253 = CARTESIAN_POINT ( 'NONE',  ( 1.102182119232617900E-015, 10.00000000000000000, -9.000000000000001800 ) ) ;
#254 = CARTESIAN_POINT ( 'NONE',  ( 0.0000000000000000000, 6.460663932000001000, 0.0000000000000000000 ) ) ;
#255 = DIRECTION ( 'NONE',  ( 0.0000000000000000000, -1.000000000000000000, 0.0000000000000000000 ) ) ;
#256 = CARTESIAN_POINT ( 'NONE',  ( 0.0000000000000000000, 0.0000000000000000000, 0.0000000000000000000 ) ) ;
#257 = CARTESIAN_POINT ( 'NONE',  ( 0.0000000000000000000, 6.460663931999954800, -10.50000000000000000 ) ) ;
#258 = CARTESIAN_POINT ( 'NONE',  ( 0.0000000000000000000, 0.0000000000000000000, 9.350000000000003200 ) ) ;
#259 = DIRECTION ( 'NONE',  ( 0.0000000000000000000, -1.000000000000000000, 0.0000000000000000000 ) ) ;
#260 =( LENGTH_UNIT ( ) NAMED_UNIT ( * ) SI_UNIT ( .MILLI., .METRE. ) );
#261 = CARTESIAN_POINT ( 'NONE',  ( 1.102182119232617900E-015, 0.0000000000000000000, -9.000000000000001800 ) ) ;
#262 =( NAMED_UNIT ( * ) SI_UNIT ( $, .STERADIAN. ) SOLID_ANGLE_UNIT ( ) );
#263 =( LENGTH_UNIT ( ) NAMED_UNIT ( * ) SI_UNIT ( .MILLI., .METRE. ) );
#264 = CARTESIAN_POINT ( 'NONE',  ( 0.0000000000000000000, 0.0000000000000000000, 0.0000000000000000000 ) ) ;
#265 = PRODUCT_CONTEXT ( 'NONE', #222, 'mechanical' ) ;
#266 = CARTESIAN_POINT ( 'NONE',  ( 0.0000000000000000000, 0.0000000000000000000, 0.0000000000000000000 ) ) ;
#267 = APPLICATION_PROTOCOL_DEFINITION ( 'draft international standard', 'automotive_design', 1998, #222 ) ;
#268 = CARTESIAN_POINT ( 'NONE',  ( 0.0000000000000000000, 3.539336068000054100, 0.0000000000000000000 ) ) ;
#269 = DIRECTION ( 'NONE',  ( -0.0000000000000000000, -1.000000000000000000, -9.276596128218218600E-017 ) ) ;
#270 = DIRECTION ( 'NONE',  ( 0.0000000000000000000, 1.000000000000000000, 9.276596128218218600E-017 ) ) ;
#271 = DIRECTION ( 'NONE',  ( 0.0000000000000000000, 0.0000000000000000000, -1.000000000000000000 ) ) ;
#272 = DIRECTION ( 'NONE',  ( 0.0000000000000000000, -1.000000000000000000, 0.0000000000000000000 ) ) ;
#273 = DIRECTION ( 'NONE',  ( 1.000000000000000000, 4.378111629846228300E-015, 0.0000000000000000000 ) ) ;
#274 = FILL_AREA_STYLE ('',( #199 ) ) ;
#275 = CARTESIAN_POINT ( 'NONE',  ( 1.215461948153748000E-015, 10.00000000000000900, 9.349999999999999600 ) ) ;
#276 = CARTESIAN_POINT ( 'NONE',  ( 0.0000000000000000000, 6.460663931999954800, 0.0000000000000000000 ) ) ;
#277 = CARTESIAN_POINT ( 'NONE',  ( 0.0000000000000000000, 6.460663932000001000, -10.50000000000000000 ) ) ;
#278 = CARTESIAN_POINT ( 'NONE',  ( 0.0000000000000000000, 3.539336068000054100, 0.0000000000000000000 ) ) ;
#279 = CARTESIAN_POINT ( 'NONE',  ( 1.285879139104720800E-015, 6.460663932000001000, 10.50000000000000000 ) ) ;
#280 = SURFACE_STYLE_USAGE ( .BOTH. , #210 ) ;
#281 = DIRECTION ( 'NONE',  ( 0.0000000000000000000, -5.121564548122002500E-015, 1.000000000000000000 ) ) ;
#282 = CARTESIAN_POINT ( 'NONE',  ( 0.0000000000000000000, 0.0000000000000000000, 0.0000000000000000000 ) ) ;
#283 = DIRECTION ( 'NONE',  ( 0.0000000000000000000, -1.000000000000000000, -0.0000000000000000000 ) ) ;
#284 = DIRECTION ( 'NONE',  ( 0.0000000000000000000, 0.0000000000000000000, 1.000000000000000000 ) ) ;
#285 = CARTESIAN_POINT ( 'NONE',  ( 0.0000000000000000000, 10.00000000000000900, 8.046164540057790600E-031 ) ) ;
#286 = DIRECTION ( 'NONE',  ( 0.0000000000000000000, 1.000000000000000000, 9.276596128218218600E-017 ) ) ;
#287 = CARTESIAN_POINT ( 'NONE',  ( 0.0000000000000000000, 10.00000000000000000, 0.0000000000000000000 ) ) ;
#288 = DIRECTION ( 'NONE',  ( -0.0000000000000000000, 1.000000000000000000, 0.0000000000000000000 ) ) ;
#289 = DIRECTION ( 'NONE',  ( 0.0000000000000000000, 0.0000000000000000000, -1.000000000000000000 ) ) ;
#290 = DIRECTION ( 'NONE',  ( 0.0000000000000000000, -1.000000000000000000, 0.0000000000000000000 ) ) ;
#291 = DIRECTION ( 'NONE',  ( 0.0000000000000000000, 1.000000000000000000, 0.0000000000000000000 ) ) ;
#292 = DIRECTION ( 'NONE',  ( 0.0000000000000000000, -5.121564548122002500E-015, 1.000000000000000000 ) ) ;
#293 = CARTESIAN_POINT ( 'NONE',  ( 1.145044757202775600E-015, 0.0000000000000000000, -9.350000000000003200 ) ) ;
#294 = DIRECTION ( 'NONE',  ( 3.784366730193853000E-017, 0.9510565163015289900, -0.3090169943553257000 ) ) ;
#295 = CARTESIAN_POINT ( 'NONE',  ( 0.0000000000000000000, 6.460663931999954800, 0.0000000000000000000 ) ) ;
#296 = DIRECTION ( 'NONE',  ( 0.0000000000000000000, -1.000000000000000000, 0.0000000000000000000 ) ) ;
#297 = DIRECTION ( 'NONE',  ( 1.000000000000000000, 4.378111629846228300E-015, 0.0000000000000000000 ) ) ;
#298 = DIRECTION ( 'NONE',  ( -0.0000000000000000000, 1.000000000000000000, 0.0000000000000000000 ) ) ;
#299 = CARTESIAN_POINT ( 'NONE',  ( 0.0000000000000000000, 0.0000000000000000000, 9.000000000000001800 ) ) ;
#300 = DIRECTION ( 'NONE',  ( 0.0000000000000000000, 0.0000000000000000000, 1.000000000000000000 ) ) ;
#301 = CARTESIAN_POINT ( 'NONE',  ( 0.0000000000000000000, 0.0000000000000000000, 0.0000000000000000000 ) ) ;
#302 = CARTESIAN_POINT ( 'NONE',  ( 0.0000000000000000000, 0.0000000000000000000, 0.0000000000000000000 ) ) ;
#303 = DIRECTION ( 'NONE',  ( 0.0000000000000000000, -1.000000000000000000, -0.0000000000000000000 ) ) ;
#304 = PRODUCT ( '107600002Y700A', '107600002Y700A', '', ( #265 ) ) ;
#305 = ADVANCED_FACE ( 'NONE', ( #65 ), #140, .T. ) ;
#306 = ADVANCED_FACE ( 'NONE', ( #120 ), #75, .T. ) ;
#307 = ADVANCED_FACE ( 'NONE', ( #64 ), #182, .T. ) ;
#308 = ADVANCED_FACE ( 'NONE', ( #121, #165 ), #188, .T. ) ;
#309 = ADVANCED_FACE ( 'NONE', ( #89, #171 ), #231, .T. ) ;
#310 = ADVANCED_FACE ( 'NONE', ( #67 ), #166, .F. ) ;
#311 = ADVANCED_FACE ( 'NONE', ( #181 ), #143, .T. ) ;
#312 = ADVANCED_FACE ( 'NONE', ( #178 ), #180, .T. ) ;
#313 = ADVANCED_FACE ( 'NONE', ( #142 ), #74, .F. ) ;
#314 = ADVANCED_FACE ( 'NONE', ( #162 ), #136, .T. ) ;
ENDSEC;
END-ISO-10303-21;
