ISO-10303-21;
HEADER;
FILE_DESCRIPTION (( 'STEP AP214' ),
    '1' );
FILE_NAME ('107400002J100A.STEP',
    '2013-02-25T17:22:24',
    ( '' ),
    ( '' ),
    'SwSTEP 2.0',
    'SolidWorks 2012',
    '' );
FILE_SCHEMA (( 'AUTOMOTIVE_DESIGN' ));
ENDSEC;

DATA;
#1 = ADVANCED_FACE ( 'NONE', ( #101 ), #95, .T. ) ;
#2 = ADVANCED_FACE ( 'NONE', ( #100 ), #93, .T. ) ;
#3 = ADVANCED_FACE ( 'NONE', ( #96, #97 ), #296, .T. ) ;
#4 = ADVANCED_FACE ( 'NONE', ( #20 ), #91, .T. ) ;
#5 = ADVANCED_FACE ( 'NONE', ( #99 ), #89, .F. ) ;
#6 = ADVANCED_FACE ( 'NONE', ( #92 ), #87, .T. ) ;
#7 = ADVANCED_FACE ( 'NONE', ( #90 ), #83, .T. ) ;
#8 = ADVANCED_FACE ( 'NONE', ( #88 ), #94, .F. ) ;
#9 = ADVANCED_FACE ( 'NONE', ( #84, #82 ), #254, .T. ) ;
#10 = ADVANCED_FACE ( 'NONE', ( #98 ), #77, .T. ) ;
#11 = SHAPE_DEFINITION_REPRESENTATION ( #329, #331 ) ;
#12 = ORIENTED_EDGE ( 'NONE', *, *, #194, .F. ) ;
#13 = VERTEX_POINT ( 'NONE', #238 ) ;
#14 = PRESENTATION_STYLE_ASSIGNMENT (( #231 ) ) ;
#15 = SURFACE_STYLE_FILL_AREA ( #234 ) ;
#16 = COLOUR_RGB ( '',0.9882352941176471000, 0.8705882352941176600, 0.5490196078431373000 ) ;
#17 = ORIENTED_EDGE ( 'NONE', *, *, #193, .F. ) ;
#18 = ORIENTED_EDGE ( 'NONE', *, *, #187, .T. ) ;
#19 = ORIENTED_EDGE ( 'NONE', *, *, #150, .T. ) ;
#20 = FACE_OUTER_BOUND ( 'NONE', #111, .T. ) ;
#21 = ORIENTED_EDGE ( 'NONE', *, *, #169, .T. ) ;
#22 = ORIENTED_EDGE ( 'NONE', *, *, #193, .T. ) ;
#23 = ORIENTED_EDGE ( 'NONE', *, *, #190, .F. ) ;
#24 = ORIENTED_EDGE ( 'NONE', *, *, #147, .T. ) ;
#25 = ORIENTED_EDGE ( 'NONE', *, *, #140, .F. ) ;
#26 = ORIENTED_EDGE ( 'NONE', *, *, #146, .F. ) ;
#27 = ORIENTED_EDGE ( 'NONE', *, *, #185, .T. ) ;
#28 = ORIENTED_EDGE ( 'NONE', *, *, #148, .F. ) ;
#29 = ORIENTED_EDGE ( 'NONE', *, *, #167, .F. ) ;
#30 = ORIENTED_EDGE ( 'NONE', *, *, #147, .F. ) ;
#31 = ORIENTED_EDGE ( 'NONE', *, *, #196, .F. ) ;
#32 = ORIENTED_EDGE ( 'NONE', *, *, #191, .T. ) ;
#33 = ORIENTED_EDGE ( 'NONE', *, *, #185, .F. ) ;
#34 = ORIENTED_EDGE ( 'NONE', *, *, #150, .F. ) ;
#35 = PRESENTATION_STYLE_ASSIGNMENT (( #267 ) ) ;
#36 = SURFACE_STYLE_FILL_AREA ( #308 ) ;
#37 = ORIENTED_EDGE ( 'NONE', *, *, #145, .T. ) ;
#38 = ORIENTED_EDGE ( 'NONE', *, *, #169, .F. ) ;
#39 = ORIENTED_EDGE ( 'NONE', *, *, #189, .T. ) ;
#40 = CIRCLE ( 'NONE', #160, 11.00000000000000000 ) ;
#41 = CIRCLE ( 'NONE', #142, 11.00000000000000000 ) ;
#42 = ORIENTED_EDGE ( 'NONE', *, *, #194, .T. ) ;
#43 = ORIENTED_EDGE ( 'NONE', *, *, #192, .T. ) ;
#44 = ORIENTED_EDGE ( 'NONE', *, *, #186, .F. ) ;
#45 = ORIENTED_EDGE ( 'NONE', *, *, #148, .T. ) ;
#46 = ORIENTED_EDGE ( 'NONE', *, *, #141, .T. ) ;
#47 = ORIENTED_EDGE ( 'NONE', *, *, #191, .F. ) ;
#48 = ORIENTED_EDGE ( 'NONE', *, *, #197, .F. ) ;
#49 = ORIENTED_EDGE ( 'NONE', *, *, #141, .F. ) ;
#50 = ORIENTED_EDGE ( 'NONE', *, *, #187, .F. ) ;
#51 = ORIENTED_EDGE ( 'NONE', *, *, #167, .T. ) ;
#52 = CIRCLE ( 'NONE', #161, 12.50000000000000000 ) ;
#53 = CIRCLE ( 'NONE', #184, 12.50000000000000000 ) ;
#54 = ORIENTED_EDGE ( 'NONE', *, *, #144, .F. ) ;
#55 = ORIENTED_EDGE ( 'NONE', *, *, #144, .T. ) ;
#56 = VECTOR ( 'NONE', #200, 1000.000000000000100 ) ;
#57 = COLOUR_RGB ( '',0.9882352941176471000, 0.8705882352941176600, 0.5490196078431373000 ) ;
#58 = VECTOR ( 'NONE', #206, 1000.000000000000000 ) ;
#59 = LINE ( 'NONE', #202, #56 ) ;
#60 = VECTOR ( 'NONE', #211, 1000.000000000000100 ) ;
#61 = CIRCLE ( 'NONE', #143, 11.35000000000000000 ) ;
#62 = VECTOR ( 'NONE', #214, 1000.000000000000000 ) ;
#63 = LINE ( 'NONE', #212, #58 ) ;
#64 = LINE ( 'NONE', #215, #62 ) ;
#65 = CIRCLE ( 'NONE', #183, 11.00000000000000000 ) ;
#66 = LINE ( 'NONE', #209, #60 ) ;
#67 = VECTOR ( 'NONE', #248, 1000.000000000000100 ) ;
#68 = CIRCLE ( 'NONE', #155, 12.50000000000000000 ) ;
#69 = LINE ( 'NONE', #249, #67 ) ;
#70 = CIRCLE ( 'NONE', #182, 12.50000000000000000 ) ;
#71 = CIRCLE ( 'NONE', #180, 12.50000000000000000 ) ;
#72 = VECTOR ( 'NONE', #311, 1000.000000000000100 ) ;
#73 = LINE ( 'NONE', #326, #76 ) ;
#74 = LINE ( 'NONE', #315, #72 ) ;
#75 = LINE ( 'NONE', #272, #80 ) ;
#76 = VECTOR ( 'NONE', #270, 1000.000000000000000 ) ;
#77 = CONICAL_SURFACE ( 'NONE', #153, 11.35000000000000300, 0.3141592653383478700 ) ;
#78 = CIRCLE ( 'NONE', #177, 11.35000000000000300 ) ;
#79 = CIRCLE ( 'NONE', #139, 11.35000000000000000 ) ;
#80 = VECTOR ( 'NONE', #241, 1000.000000000000000 ) ;
#81 = CIRCLE ( 'NONE', #179, 12.50000000000000000 ) ;
#82 = FACE_OUTER_BOUND ( 'NONE', #105, .T. ) ;
#83 = CONICAL_SURFACE ( 'NONE', #156, 11.35000000000000300, 0.3141592653383478200 ) ;
#84 = FACE_BOUND ( 'NONE', #110, .T. ) ;
#85 = CIRCLE ( 'NONE', #181, 11.35000000000000300 ) ;
#86 = CIRCLE ( 'NONE', #178, 11.00000000000000000 ) ;
#87 = CYLINDRICAL_SURFACE ( 'NONE', #174, 12.50000000000000000 ) ;
#88 = FACE_OUTER_BOUND ( 'NONE', #104, .T. ) ;
#89 = CYLINDRICAL_SURFACE ( 'NONE', #172, 11.00000000000000000 ) ;
#90 = FACE_OUTER_BOUND ( 'NONE', #107, .T. ) ;
#91 = CYLINDRICAL_SURFACE ( 'NONE', #157, 12.50000000000000000 ) ;
#92 = FACE_OUTER_BOUND ( 'NONE', #109, .T. ) ;
#93 = CONICAL_SURFACE ( 'NONE', #151, 11.35000000000000300, 0.3141592653383478700 ) ;
#94 = CYLINDRICAL_SURFACE ( 'NONE', #154, 11.00000000000000000 ) ;
#95 = CONICAL_SURFACE ( 'NONE', #149, 11.35000000000000300, 0.3141592653383478200 ) ;
#96 = FACE_BOUND ( 'NONE', #113, .T. ) ;
#97 = FACE_OUTER_BOUND ( 'NONE', #106, .T. ) ;
#98 = FACE_OUTER_BOUND ( 'NONE', #108, .T. ) ;
#99 = FACE_OUTER_BOUND ( 'NONE', #112, .T. ) ;
#100 = FACE_OUTER_BOUND ( 'NONE', #103, .T. ) ;
#101 = FACE_OUTER_BOUND ( 'NONE', #102, .T. ) ;
#102 = EDGE_LOOP ( 'NONE', ( #28, #39, #34, #30 ) ) ;
#103 = EDGE_LOOP ( 'NONE', ( #130, #32, #17, #12, #38 ) ) ;
#104 = EDGE_LOOP ( 'NONE', ( #138, #18, #134, #136 ) ) ;
#105 = EDGE_LOOP ( 'NONE', ( #27, #43 ) ) ;
#106 = EDGE_LOOP ( 'NONE', ( #46, #45 ) ) ;
#107 = EDGE_LOOP ( 'NONE', ( #132, #49, #24, #44 ) ) ;
#108 = EDGE_LOOP ( 'NONE', ( #47, #33, #21, #54, #29 ) ) ;
#109 = EDGE_LOOP ( 'NONE', ( #131, #22, #51, #137, #135 ) ) ;
#110 = EDGE_LOOP ( 'NONE', ( #25, #31 ) ) ;
#111 = EDGE_LOOP ( 'NONE', ( #55, #42, #37, #19, #26 ) ) ;
#112 = EDGE_LOOP ( 'NONE', ( #128, #127, #129, #23 ) ) ;
#113 = EDGE_LOOP ( 'NONE', ( #48, #50 ) ) ;
#114 = VERTEX_POINT ( 'NONE', #262 ) ;
#115 = VERTEX_POINT ( 'NONE', #261 ) ;
#116 = VERTEX_POINT ( 'NONE', #276 ) ;
#117 = VERTEX_POINT ( 'NONE', #263 ) ;
#118 = VERTEX_POINT ( 'NONE', #327 ) ;
#119 = VERTEX_POINT ( 'NONE', #260 ) ;
#120 = VERTEX_POINT ( 'NONE', #199 ) ;
#121 = VERTEX_POINT ( 'NONE', #279 ) ;
#122 = VERTEX_POINT ( 'NONE', #264 ) ;
#123 = VERTEX_POINT ( 'NONE', #265 ) ;
#124 = VERTEX_POINT ( 'NONE', #266 ) ;
#125 = VERTEX_POINT ( 'NONE', #268 ) ;
#126 = VERTEX_POINT ( 'NONE', #269 ) ;
#127 = ORIENTED_EDGE ( 'NONE', *, *, #188, .T. ) ;
#128 = ORIENTED_EDGE ( 'NONE', *, *, #197, .T. ) ;
#129 = ORIENTED_EDGE ( 'NONE', *, *, #196, .T. ) ;
#130 = ORIENTED_EDGE ( 'NONE', *, *, #192, .F. ) ;
#131 = ORIENTED_EDGE ( 'NONE', *, *, #145, .F. ) ;
#132 = ORIENTED_EDGE ( 'NONE', *, *, #189, .F. ) ;
#133 = CLOSED_SHELL ( 'NONE', ( #5, #2, #1, #4, #8, #9, #3, #10, #7, #6 ) ) ;
#134 = ORIENTED_EDGE ( 'NONE', *, *, #190, .T. ) ;
#135 = ORIENTED_EDGE ( 'NONE', *, *, #186, .T. ) ;
#136 = ORIENTED_EDGE ( 'NONE', *, *, #140, .T. ) ;
#137 = ORIENTED_EDGE ( 'NONE', *, *, #146, .T. ) ;
#138 = ORIENTED_EDGE ( 'NONE', *, *, #188, .F. ) ;
#139 = AXIS2_PLACEMENT_3D ( 'NONE', #219, #218, #216 ) ;
#140 = EDGE_CURVE ( 'NONE', #122, #116, #86, .T. ) ;
#141 = EDGE_CURVE ( 'NONE', #120, #114, #78, .T. ) ;
#142 = AXIS2_PLACEMENT_3D ( 'NONE', #313, #312, #309 ) ;
#143 = AXIS2_PLACEMENT_3D ( 'NONE', #325, #324, #323 ) ;
#144 = EDGE_CURVE ( 'NONE', #125, #123, #81, .T. ) ;
#145 = EDGE_CURVE ( 'NONE', #126, #13, #73, .T. ) ;
#146 = EDGE_CURVE ( 'NONE', #125, #115, #75, .T. ) ;
#147 = EDGE_CURVE ( 'NONE', #120, #13, #74, .T. ) ;
#148 = EDGE_CURVE ( 'NONE', #114, #120, #85, .T. ) ;
#149 = AXIS2_PLACEMENT_3D ( 'NONE', #291, #292, #293 ) ;
#150 = EDGE_CURVE ( 'NONE', #13, #115, #71, .T. ) ;
#151 = AXIS2_PLACEMENT_3D ( 'NONE', #290, #288, #282 ) ;
#152 = AXIS2_PLACEMENT_3D ( 'NONE', #294, #289, #301 ) ;
#153 = AXIS2_PLACEMENT_3D ( 'NONE', #277, #284, #256 ) ;
#154 = AXIS2_PLACEMENT_3D ( 'NONE', #306, #303, #304 ) ;
#155 = AXIS2_PLACEMENT_3D ( 'NONE', #213, #217, #210 ) ;
#156 = AXIS2_PLACEMENT_3D ( 'NONE', #300, #302, #287 ) ;
#157 = AXIS2_PLACEMENT_3D ( 'NONE', #305, #295, #297 ) ;
#158 = PRESENTATION_LAYER_ASSIGNMENT (  '', '', ( #159 ) ) ;
#159 = STYLED_ITEM ( 'NONE', ( #35 ), #332 ) ;
#160 = AXIS2_PLACEMENT_3D ( 'NONE', #299, #285, #278 ) ;
#161 = AXIS2_PLACEMENT_3D ( 'NONE', #318, #317, #316 ) ;
#162 = PRODUCT_RELATED_PRODUCT_CATEGORY ( 'part', '', ( #198 ) ) ;
#163 = PRODUCT_DEFINITION_FORMATION_WITH_SPECIFIED_SOURCE ( 'TUTTO', '', #198, .NOT_KNOWN. ) ;
#164 = PRODUCT_DEFINITION ( 'NON CONOSCIUTO', '', #163, #328 ) ;
#165 = STYLED_ITEM ( 'NONE', ( #14 ), #331 ) ;
#166 = AXIS2_PLACEMENT_3D ( 'NONE', #226, #225, #223 ) ;
#167 = EDGE_CURVE ( 'NONE', #118, #125, #70, .T. ) ;
#168 =( GEOMETRIC_REPRESENTATION_CONTEXT ( 3 ) GLOBAL_UNCERTAINTY_ASSIGNED_CONTEXT ( ( #334 ) ) GLOBAL_UNIT_ASSIGNED_CONTEXT ( ( #314, #245, #239 ) ) REPRESENTATION_CONTEXT ( 'NONE', 'WORKASPACE' ) );
#169 = EDGE_CURVE ( 'NONE', #124, #123, #69, .T. ) ;
#170 =( GEOMETRIC_REPRESENTATION_CONTEXT ( 3 ) GLOBAL_UNCERTAINTY_ASSIGNED_CONTEXT ( ( #330 ) ) GLOBAL_UNIT_ASSIGNED_CONTEXT ( ( #230, #229, #228 ) ) REPRESENTATION_CONTEXT ( 'NONE', 'WORKASPACE' ) );
#171 = MECHANICAL_DESIGN_GEOMETRIC_PRESENTATION_REPRESENTATION (  '', ( #165 ), #170 ) ;
#172 = AXIS2_PLACEMENT_3D ( 'NONE', #247, #251, #258 ) ;
#173 = PRESENTATION_LAYER_ASSIGNMENT (  '', '', ( #165 ) ) ;
#174 = AXIS2_PLACEMENT_3D ( 'NONE', #283, #244, #281 ) ;
#175 =( GEOMETRIC_REPRESENTATION_CONTEXT ( 3 ) GLOBAL_UNCERTAINTY_ASSIGNED_CONTEXT ( ( #333 ) ) GLOBAL_UNIT_ASSIGNED_CONTEXT ( ( #259, #257, #255 ) ) REPRESENTATION_CONTEXT ( 'NONE', 'WORKASPACE' ) );
#176 = AXIS2_PLACEMENT_3D ( 'NONE', #298, #286, #205 ) ;
#177 = AXIS2_PLACEMENT_3D ( 'NONE', #201, #271, #237 ) ;
#178 = AXIS2_PLACEMENT_3D ( 'NONE', #275, #280, #274 ) ;
#179 = AXIS2_PLACEMENT_3D ( 'NONE', #243, #246, #310 ) ;
#180 = AXIS2_PLACEMENT_3D ( 'NONE', #204, #242, #240 ) ;
#181 = AXIS2_PLACEMENT_3D ( 'NONE', #253, #252, #250 ) ;
#182 = AXIS2_PLACEMENT_3D ( 'NONE', #232, #227, #224 ) ;
#183 = AXIS2_PLACEMENT_3D ( 'NONE', #203, #208, #207 ) ;
#184 = AXIS2_PLACEMENT_3D ( 'NONE', #322, #321, #320 ) ;
#185 = EDGE_CURVE ( 'NONE', #124, #121, #79, .T. ) ;
#186 = EDGE_CURVE ( 'NONE', #115, #13, #68, .T. ) ;
#187 = EDGE_CURVE ( 'NONE', #119, #117, #65, .T. ) ;
#188 = EDGE_CURVE ( 'NONE', #119, #116, #64, .T. ) ;
#189 = EDGE_CURVE ( 'NONE', #114, #115, #66, .T. ) ;
#190 = EDGE_CURVE ( 'NONE', #117, #122, #63, .T. ) ;
#191 = EDGE_CURVE ( 'NONE', #121, #118, #59, .T. ) ;
#192 = EDGE_CURVE ( 'NONE', #121, #124, #61, .T. ) ;
#193 = EDGE_CURVE ( 'NONE', #126, #118, #53, .T. ) ;
#194 = EDGE_CURVE ( 'NONE', #123, #126, #52, .T. ) ;
#195 = MECHANICAL_DESIGN_GEOMETRIC_PRESENTATION_REPRESENTATION (  '', ( #159 ), #175 ) ;
#196 = EDGE_CURVE ( 'NONE', #116, #122, #41, .T. ) ;
#197 = EDGE_CURVE ( 'NONE', #117, #119, #40, .T. ) ;
#198 = PRODUCT ( '107400002J100A', '107400002J100A', '', ( #222 ) ) ;
#199 = CARTESIAN_POINT ( 'NONE',  ( 0.0000000000000000000, 0.0000000000000000000, 11.35000000000000300 ) ) ;
#200 = DIRECTION ( 'NONE',  ( -0.3090169943553258100, -0.9510565163015289900, 3.784366730193854300E-017 ) ) ;
#201 = CARTESIAN_POINT ( 'NONE',  ( 0.0000000000000000000, 0.0000000000000000000, 0.0000000000000000000 ) ) ;
#202 = CARTESIAN_POINT ( 'NONE',  ( -11.35000000000000300, 10.00000000000000200, 1.389974117032246300E-015 ) ) ;
#203 = CARTESIAN_POINT ( 'NONE',  ( 0.0000000000000000000, 0.0000000000000000000, 0.0000000000000000000 ) ) ;
#204 = CARTESIAN_POINT ( 'NONE',  ( 0.0000000000000000000, 3.539336068000054100, 0.0000000000000000000 ) ) ;
#205 = DIRECTION ( 'NONE',  ( 0.0000000000000000000, 0.0000000000000000000, 1.000000000000000000 ) ) ;
#206 = DIRECTION ( 'NONE',  ( 0.0000000000000000000, 1.000000000000000000, 0.0000000000000000000 ) ) ;
#207 = DIRECTION ( 'NONE',  ( 0.0000000000000000000, 0.0000000000000000000, 1.000000000000000000 ) ) ;
#208 = DIRECTION ( 'NONE',  ( -0.0000000000000000000, -1.000000000000000000, -0.0000000000000000000 ) ) ;
#209 = CARTESIAN_POINT ( 'NONE',  ( 1.389974117032246300E-015, 0.0000000000000000000, -11.35000000000000300 ) ) ;
#210 = DIRECTION ( 'NONE',  ( 0.0000000000000000000, -4.302114220422481600E-015, 1.000000000000000000 ) ) ;
#211 = DIRECTION ( 'NONE',  ( 3.784366730193853000E-017, 0.9510565163015289900, -0.3090169943553257000 ) ) ;
#212 = CARTESIAN_POINT ( 'NONE',  ( 0.0000000000000000000, 0.0000000000000000000, 11.00000000000000000 ) ) ;
#213 = CARTESIAN_POINT ( 'NONE',  ( 0.0000000000000000000, 3.539336068000054100, 0.0000000000000000000 ) ) ;
#214 = DIRECTION ( 'NONE',  ( 0.0000000000000000000, 1.000000000000000000, 0.0000000000000000000 ) ) ;
#215 = CARTESIAN_POINT ( 'NONE',  ( 1.347111479062088400E-015, 0.0000000000000000000, -11.00000000000000000 ) ) ;
#216 = DIRECTION ( 'NONE',  ( 1.000000000000000000, 0.0000000000000000000, 0.0000000000000000000 ) ) ;
#217 = DIRECTION ( 'NONE',  ( 0.0000000000000000000, 1.000000000000000000, 0.0000000000000000000 ) ) ;
#218 = DIRECTION ( 'NONE',  ( 7.641953638664348000E-017, 1.000000000000000000, -0.0000000000000000000 ) ) ;
#219 = CARTESIAN_POINT ( 'NONE',  ( 6.628338189539676400E-031, 10.00000000000000900, 0.0000000000000000000 ) ) ;
#220 = APPLICATION_PROTOCOL_DEFINITION ( 'draft international standard', 'automotive_design', 1998, #221 ) ;
#221 = APPLICATION_CONTEXT ( 'automotive_design' ) ;
#222 = PRODUCT_CONTEXT ( 'NONE', #235, 'mechanical' ) ;
#223 = DIRECTION ( 'NONE',  ( 1.000000000000000000, 0.0000000000000000000, 0.0000000000000000000 ) ) ;
#224 = DIRECTION ( 'NONE',  ( 0.0000000000000000000, 3.677613769070831000E-015, -1.000000000000000000 ) ) ;
#225 = DIRECTION ( 'NONE',  ( 0.0000000000000000000, 0.0000000000000000000, 1.000000000000000000 ) ) ;
#226 = CARTESIAN_POINT ( 'NONE',  ( 0.0000000000000000000, 0.0000000000000000000, 0.0000000000000000000 ) ) ;
#227 = DIRECTION ( 'NONE',  ( 0.0000000000000000000, -1.000000000000000000, 0.0000000000000000000 ) ) ;
#228 =( NAMED_UNIT ( * ) SI_UNIT ( $, .STERADIAN. ) SOLID_ANGLE_UNIT ( ) );
#229 =( NAMED_UNIT ( * ) PLANE_ANGLE_UNIT ( ) SI_UNIT ( $, .RADIAN. ) );
#230 =( LENGTH_UNIT ( ) NAMED_UNIT ( * ) SI_UNIT ( .MILLI., .METRE. ) );
#231 = SURFACE_STYLE_USAGE ( .BOTH. , #233 ) ;
#232 = CARTESIAN_POINT ( 'NONE',  ( 0.0000000000000000000, 6.460663931999954800, 0.0000000000000000000 ) ) ;
#233 = SURFACE_SIDE_STYLE ('',( #15 ) ) ;
#234 = FILL_AREA_STYLE ('',( #307 ) ) ;
#235 = APPLICATION_CONTEXT ( 'automotive_design' ) ;
#236 = APPLICATION_PROTOCOL_DEFINITION ( 'draft international standard', 'automotive_design', 1998, #235 ) ;
#237 = DIRECTION ( 'NONE',  ( 0.0000000000000000000, 0.0000000000000000000, 1.000000000000000000 ) ) ;
#238 = CARTESIAN_POINT ( 'NONE',  ( 1.530808498934191500E-015, 3.539336068000054100, 12.50000000000000000 ) ) ;
#239 =( NAMED_UNIT ( * ) SI_UNIT ( $, .STERADIAN. ) SOLID_ANGLE_UNIT ( ) );
#240 = DIRECTION ( 'NONE',  ( 0.0000000000000000000, -4.302114220422481600E-015, 1.000000000000000000 ) ) ;
#241 = DIRECTION ( 'NONE',  ( 0.0000000000000000000, -1.000000000000000000, 0.0000000000000000000 ) ) ;
#242 = DIRECTION ( 'NONE',  ( 0.0000000000000000000, 1.000000000000000000, 0.0000000000000000000 ) ) ;
#243 = CARTESIAN_POINT ( 'NONE',  ( 0.0000000000000000000, 6.460663931999954800, 0.0000000000000000000 ) ) ;
#244 = DIRECTION ( 'NONE',  ( 0.0000000000000000000, -1.000000000000000000, 0.0000000000000000000 ) ) ;
#245 =( NAMED_UNIT ( * ) PLANE_ANGLE_UNIT ( ) SI_UNIT ( $, .RADIAN. ) );
#246 = DIRECTION ( 'NONE',  ( 0.0000000000000000000, -1.000000000000000000, 0.0000000000000000000 ) ) ;
#247 = CARTESIAN_POINT ( 'NONE',  ( 0.0000000000000000000, 0.0000000000000000000, 0.0000000000000000000 ) ) ;
#248 = DIRECTION ( 'NONE',  ( 0.3090169943553257000, -0.9510565163015289900, 0.0000000000000000000 ) ) ;
#249 = CARTESIAN_POINT ( 'NONE',  ( 11.35000000000000300, 9.999999999999998200, 0.0000000000000000000 ) ) ;
#250 = DIRECTION ( 'NONE',  ( 0.0000000000000000000, 0.0000000000000000000, 1.000000000000000000 ) ) ;
#251 = DIRECTION ( 'NONE',  ( 0.0000000000000000000, 1.000000000000000000, 0.0000000000000000000 ) ) ;
#252 = DIRECTION ( 'NONE',  ( 0.0000000000000000000, -1.000000000000000000, -0.0000000000000000000 ) ) ;
#253 = CARTESIAN_POINT ( 'NONE',  ( 0.0000000000000000000, 0.0000000000000000000, 0.0000000000000000000 ) ) ;
#254 = PLANE ( 'NONE',  #176 ) ;
#255 =( NAMED_UNIT ( * ) SI_UNIT ( $, .STERADIAN. ) SOLID_ANGLE_UNIT ( ) );
#256 = DIRECTION ( 'NONE',  ( 1.000000000000000000, -1.528390727732869400E-016, 0.0000000000000000000 ) ) ;
#257 =( NAMED_UNIT ( * ) PLANE_ANGLE_UNIT ( ) SI_UNIT ( $, .RADIAN. ) );
#258 = DIRECTION ( 'NONE',  ( 0.0000000000000000000, 0.0000000000000000000, 1.000000000000000000 ) ) ;
#259 =( LENGTH_UNIT ( ) NAMED_UNIT ( * ) SI_UNIT ( .MILLI., .METRE. ) );
#260 = CARTESIAN_POINT ( 'NONE',  ( 1.347111479062088400E-015, 0.0000000000000000000, -11.00000000000000000 ) ) ;
#261 = CARTESIAN_POINT ( 'NONE',  ( 0.0000000000000000000, 3.539336068000054100, -12.50000000000000000 ) ) ;
#262 = CARTESIAN_POINT ( 'NONE',  ( 1.460391307983218900E-015, 0.0000000000000000000, -11.35000000000000300 ) ) ;
#263 = CARTESIAN_POINT ( 'NONE',  ( 0.0000000000000000000, 0.0000000000000000000, 11.00000000000000000 ) ) ;
#264 = CARTESIAN_POINT ( 'NONE',  ( 0.0000000000000000000, 10.00000000000000000, 11.00000000000000000 ) ) ;
#265 = CARTESIAN_POINT ( 'NONE',  ( 12.50000000000001400, 6.460663931999954800, 0.0000000000000000000 ) ) ;
#266 = CARTESIAN_POINT ( 'NONE',  ( 11.35000000000000000, 10.00000000000000900, 0.0000000000000000000 ) ) ;
#267 = SURFACE_STYLE_USAGE ( .BOTH. , #273 ) ;
#268 = CARTESIAN_POINT ( 'NONE',  ( 0.0000000000000000000, 6.460663932000001000, -12.50000000000000000 ) ) ;
#269 = CARTESIAN_POINT ( 'NONE',  ( 1.530808498934191500E-015, 6.460663931999954800, 12.50000000000000000 ) ) ;
#270 = DIRECTION ( 'NONE',  ( 0.0000000000000000000, -1.000000000000000000, 0.0000000000000000000 ) ) ;
#271 = DIRECTION ( 'NONE',  ( 0.0000000000000000000, -1.000000000000000000, -0.0000000000000000000 ) ) ;
#272 = CARTESIAN_POINT ( 'NONE',  ( 0.0000000000000000000, 6.460663932000001000, -12.50000000000000000 ) ) ;
#273 = SURFACE_SIDE_STYLE ('',( #36 ) ) ;
#274 = DIRECTION ( 'NONE',  ( 0.0000000000000000000, 0.0000000000000000000, 1.000000000000000000 ) ) ;
#275 = CARTESIAN_POINT ( 'NONE',  ( 0.0000000000000000000, 10.00000000000000000, 0.0000000000000000000 ) ) ;
#276 = CARTESIAN_POINT ( 'NONE',  ( 1.347111479062088400E-015, 10.00000000000000000, -11.00000000000000000 ) ) ;
#277 = CARTESIAN_POINT ( 'NONE',  ( 0.0000000000000000000, 10.00000000000000000, 0.0000000000000000000 ) ) ;
#278 = DIRECTION ( 'NONE',  ( 0.0000000000000000000, 0.0000000000000000000, 1.000000000000000000 ) ) ;
#279 = CARTESIAN_POINT ( 'NONE',  ( -11.35000000000000000, 10.00000000000000900, 1.460391307983218500E-015 ) ) ;
#280 = DIRECTION ( 'NONE',  ( 0.0000000000000000000, 1.000000000000000000, 0.0000000000000000000 ) ) ;
#281 = DIRECTION ( 'NONE',  ( 0.0000000000000000000, 0.0000000000000000000, -1.000000000000000000 ) ) ;
#282 = DIRECTION ( 'NONE',  ( 1.000000000000000000, -1.528390727732869400E-016, 0.0000000000000000000 ) ) ;
#283 = CARTESIAN_POINT ( 'NONE',  ( 0.0000000000000000000, 6.460663932000001000, 0.0000000000000000000 ) ) ;
#284 = DIRECTION ( 'NONE',  ( -7.641953638664348000E-017, -1.000000000000000000, 0.0000000000000000000 ) ) ;
#285 = DIRECTION ( 'NONE',  ( -0.0000000000000000000, -1.000000000000000000, -0.0000000000000000000 ) ) ;
#286 = DIRECTION ( 'NONE',  ( 0.0000000000000000000, 1.000000000000000000, 0.0000000000000000000 ) ) ;
#287 = DIRECTION ( 'NONE',  ( 0.0000000000000000000, 0.0000000000000000000, 1.000000000000000000 ) ) ;
#288 = DIRECTION ( 'NONE',  ( -7.641953638664348000E-017, -1.000000000000000000, 0.0000000000000000000 ) ) ;
#289 = DIRECTION ( 'NONE',  ( 0.0000000000000000000, -1.000000000000000000, 0.0000000000000000000 ) ) ;
#290 = CARTESIAN_POINT ( 'NONE',  ( 0.0000000000000000000, 10.00000000000000000, 0.0000000000000000000 ) ) ;
#291 = CARTESIAN_POINT ( 'NONE',  ( 0.0000000000000000000, 0.0000000000000000000, 0.0000000000000000000 ) ) ;
#292 = DIRECTION ( 'NONE',  ( -0.0000000000000000000, 1.000000000000000000, 0.0000000000000000000 ) ) ;
#293 = DIRECTION ( 'NONE',  ( 0.0000000000000000000, 0.0000000000000000000, 1.000000000000000000 ) ) ;
#294 = CARTESIAN_POINT ( 'NONE',  ( -11.48620000000000000, 0.0000000000000000000, 11.48620000000000000 ) ) ;
#295 = DIRECTION ( 'NONE',  ( 0.0000000000000000000, -1.000000000000000000, 0.0000000000000000000 ) ) ;
#296 = PLANE ( 'NONE',  #152 ) ;
#297 = DIRECTION ( 'NONE',  ( 0.0000000000000000000, 0.0000000000000000000, -1.000000000000000000 ) ) ;
#298 = CARTESIAN_POINT ( 'NONE',  ( -11.48620000000000000, 10.00000000000000000, -11.48620000000000000 ) ) ;
#299 = CARTESIAN_POINT ( 'NONE',  ( 0.0000000000000000000, 0.0000000000000000000, 0.0000000000000000000 ) ) ;
#300 = CARTESIAN_POINT ( 'NONE',  ( 0.0000000000000000000, 0.0000000000000000000, 0.0000000000000000000 ) ) ;
#301 = DIRECTION ( 'NONE',  ( 0.0000000000000000000, 0.0000000000000000000, -1.000000000000000000 ) ) ;
#302 = DIRECTION ( 'NONE',  ( -0.0000000000000000000, 1.000000000000000000, 0.0000000000000000000 ) ) ;
#303 = DIRECTION ( 'NONE',  ( 0.0000000000000000000, 1.000000000000000000, 0.0000000000000000000 ) ) ;
#304 = DIRECTION ( 'NONE',  ( 0.0000000000000000000, 0.0000000000000000000, 1.000000000000000000 ) ) ;
#305 = CARTESIAN_POINT ( 'NONE',  ( 0.0000000000000000000, 6.460663932000001000, 0.0000000000000000000 ) ) ;
#306 = CARTESIAN_POINT ( 'NONE',  ( 0.0000000000000000000, 0.0000000000000000000, 0.0000000000000000000 ) ) ;
#307 = FILL_AREA_STYLE_COLOUR ( '', #16 ) ;
#308 = FILL_AREA_STYLE ('',( #319 ) ) ;
#309 = DIRECTION ( 'NONE',  ( 0.0000000000000000000, 0.0000000000000000000, 1.000000000000000000 ) ) ;
#310 = DIRECTION ( 'NONE',  ( 0.0000000000000000000, 3.677613769070831000E-015, -1.000000000000000000 ) ) ;
#311 = DIRECTION ( 'NONE',  ( 0.0000000000000000000, 0.9510565163015289900, 0.3090169943553257000 ) ) ;
#312 = DIRECTION ( 'NONE',  ( 0.0000000000000000000, 1.000000000000000000, 0.0000000000000000000 ) ) ;
#313 = CARTESIAN_POINT ( 'NONE',  ( 0.0000000000000000000, 10.00000000000000000, 0.0000000000000000000 ) ) ;
#314 =( LENGTH_UNIT ( ) NAMED_UNIT ( * ) SI_UNIT ( .MILLI., .METRE. ) );
#315 = CARTESIAN_POINT ( 'NONE',  ( 0.0000000000000000000, 0.0000000000000000000, 11.35000000000000300 ) ) ;
#316 = DIRECTION ( 'NONE',  ( 0.0000000000000000000, 3.677613769070831000E-015, -1.000000000000000000 ) ) ;
#317 = DIRECTION ( 'NONE',  ( 0.0000000000000000000, -1.000000000000000000, 0.0000000000000000000 ) ) ;
#318 = CARTESIAN_POINT ( 'NONE',  ( 0.0000000000000000000, 6.460663931999954800, 0.0000000000000000000 ) ) ;
#319 = FILL_AREA_STYLE_COLOUR ( '', #57 ) ;
#320 = DIRECTION ( 'NONE',  ( 0.0000000000000000000, 3.677613769070831000E-015, -1.000000000000000000 ) ) ;
#321 = DIRECTION ( 'NONE',  ( 0.0000000000000000000, -1.000000000000000000, 0.0000000000000000000 ) ) ;
#322 = CARTESIAN_POINT ( 'NONE',  ( 0.0000000000000000000, 6.460663931999954800, 0.0000000000000000000 ) ) ;
#323 = DIRECTION ( 'NONE',  ( 1.000000000000000000, 0.0000000000000000000, 0.0000000000000000000 ) ) ;
#324 = DIRECTION ( 'NONE',  ( 7.641953638664348000E-017, 1.000000000000000000, -0.0000000000000000000 ) ) ;
#325 = CARTESIAN_POINT ( 'NONE',  ( 6.628338189539676400E-031, 10.00000000000000900, 0.0000000000000000000 ) ) ;
#326 = CARTESIAN_POINT ( 'NONE',  ( 1.530808498934191500E-015, 6.460663932000001000, 12.50000000000000000 ) ) ;
#327 = CARTESIAN_POINT ( 'NONE',  ( -12.50000000000001600, 6.460663931999954800, 1.530808498934193500E-015 ) ) ;
#328 = PRODUCT_DEFINITION_CONTEXT ( 'detailed design', #221, 'design' ) ;
#329 = PRODUCT_DEFINITION_SHAPE ( 'NONE', 'NONE',  #164 ) ;
#330 = UNCERTAINTY_MEASURE_WITH_UNIT (LENGTH_MEASURE( 1.000000000000000100E-005 ), #230, 'distance_accuracy_value', 'NONE');
#331 = ADVANCED_BREP_SHAPE_REPRESENTATION ( '107400002J100A', ( #332, #166 ), #168 ) ;
#332 = MANIFOLD_SOLID_BREP ( 'Importato1', #133 ) ;
#333 = UNCERTAINTY_MEASURE_WITH_UNIT (LENGTH_MEASURE( 1.000000000000000100E-005 ), #259, 'distance_accuracy_value', 'NONE');
#334 = UNCERTAINTY_MEASURE_WITH_UNIT (LENGTH_MEASURE( 1.000000000000000100E-005 ), #314, 'distance_accuracy_value', 'NONE');
ENDSEC;
END-ISO-10303-21;
