ISO-10303-21;
HEADER;
FILE_DESCRIPTION (( 'STEP AP214' ),
    '1' );
FILE_NAME ('107600002J100A.STEP',
    '2013-02-25T17:26:32',
    ( '' ),
    ( '' ),
    'SwSTEP 2.0',
    'SolidWorks 2012',
    '' );
FILE_SCHEMA (( 'AUTOMOTIVE_DESIGN' ));
ENDSEC;

DATA;
#1 = ADVANCED_FACE ( 'NONE', ( #278 ), #196, .F. ) ;
#2 = ADVANCED_FACE ( 'NONE', ( #279 ), #201, .T. ) ;
#3 = ADVANCED_FACE ( 'NONE', ( #195 ), #280, .T. ) ;
#4 = ADVANCED_FACE ( 'NONE', ( #200 ), #205, .T. ) ;
#5 = ADVANCED_FACE ( 'NONE', ( #198, #199 ), #175, .T. ) ;
#6 = ADVANCED_FACE ( 'NONE', ( #296 ), #207, .F. ) ;
#7 = ADVANCED_FACE ( 'NONE', ( #203, #208 ), #140, .T. ) ;
#8 = ADVANCED_FACE ( 'NONE', ( #202 ), #213, .T. ) ;
#9 = ADVANCED_FACE ( 'NONE', ( #204 ), #206, .T. ) ;
#10 = ADVANCED_FACE ( 'NONE', ( #212 ), #217, .T. ) ;
#11 = EDGE_CURVE ( 'NONE', #267, #197, #216, .T. ) ;
#12 = AXIS2_PLACEMENT_3D ( 'NONE', #136, #138, #135 ) ;
#13 = EDGE_CURVE ( 'NONE', #256, #274, #211, .T. ) ;
#14 = EDGE_CURVE ( 'NONE', #309, #297, #209, .T. ) ;
#15 = EDGE_CURVE ( 'NONE', #311, #309, #215, .T. ) ;
#16 = AXIS2_PLACEMENT_3D ( 'NONE', #123, #185, #125 ) ;
#17 = AXIS2_PLACEMENT_3D ( 'NONE', #131, #192, #129 ) ;
#18 = EDGE_CURVE ( 'NONE', #309, #311, #218, .T. ) ;
#19 = EDGE_CURVE ( 'NONE', #256, #297, #214, .T. ) ;
#20 = EDGE_CURVE ( 'NONE', #197, #309, #219, .T. ) ;
#21 = AXIS2_PLACEMENT_3D ( 'NONE', #112, #145, #132 ) ;
#22 = EDGE_CURVE ( 'NONE', #274, #306, #231, .T. ) ;
#23 = AXIS2_PLACEMENT_3D ( 'NONE', #94, #111, #194 ) ;
#24 = AXIS2_PLACEMENT_3D ( 'NONE', #163, #120, #127 ) ;
#25 = EDGE_CURVE ( 'NONE', #297, #306, #236, .T. ) ;
#26 = EDGE_CURVE ( 'NONE', #197, #267, #240, .T. ) ;
#27 = EDGE_CURVE ( 'NONE', #289, #258, #241, .T. ) ;
#28 = EDGE_CURVE ( 'NONE', #259, #295, #238, .T. ) ;
#29 = EDGE_CURVE ( 'NONE', #306, #297, #242, .T. ) ;
#30 = EDGE_CURVE ( 'NONE', #311, #306, #244, .T. ) ;
#31 = AXIS2_PLACEMENT_3D ( 'NONE', #86, #95, #92 ) ;
#32 = EDGE_CURVE ( 'NONE', #274, #256, #245, .T. ) ;
#33 = EDGE_CURVE ( 'NONE', #295, #258, #247, .T. ) ;
#34 = AXIS2_PLACEMENT_3D ( 'NONE', #124, #115, #84 ) ;
#35 = MECHANICAL_DESIGN_GEOMETRIC_PRESENTATION_REPRESENTATION (  '', ( #40 ), #65 ) ;
#36 = PRESENTATION_LAYER_ASSIGNMENT (  '', '', ( #40 ) ) ;
#37 = MECHANICAL_DESIGN_GEOMETRIC_PRESENTATION_REPRESENTATION (  '', ( #41 ), #63 ) ;
#38 = AXIS2_PLACEMENT_3D ( 'NONE', #110, #188, #144 ) ;
#39 = AXIS2_PLACEMENT_3D ( 'NONE', #101, #100, #98 ) ;
#40 = STYLED_ITEM ( 'NONE', ( #285 ), #71 ) ;
#41 = STYLED_ITEM ( 'NONE', ( #265 ), #70 ) ;
#42 = PRESENTATION_LAYER_ASSIGNMENT (  '', '', ( #41 ) ) ;
#43 = EDGE_CURVE ( 'NONE', #259, #289, #248, .T. ) ;
#44 = EDGE_CURVE ( 'NONE', #295, #259, #262, .T. ) ;
#45 = PRODUCT_RELATED_PRODUCT_CATEGORY ( 'part', '', ( #66 ) ) ;
#46 = PRODUCT_DEFINITION_FORMATION_WITH_SPECIFIED_SOURCE ( 'TUTTO', '', #66, .NOT_KNOWN. ) ;
#47 = AXIS2_PLACEMENT_3D ( 'NONE', #160, #183, #184 ) ;
#48 = AXIS2_PLACEMENT_3D ( 'NONE', #162, #165, #164 ) ;
#49 = EDGE_CURVE ( 'NONE', #258, #289, #252, .T. ) ;
#50 = AXIS2_PLACEMENT_3D ( 'NONE', #167, #166, #159 ) ;
#51 = EDGE_CURVE ( 'NONE', #267, #311, #253, .T. ) ;
#52 = AXIS2_PLACEMENT_3D ( 'NONE', #169, #171, #168 ) ;
#53 = AXIS2_PLACEMENT_3D ( 'NONE', #170, #172, #176 ) ;
#54 = PRODUCT_DEFINITION ( 'NON CONOSCIUTO', '', #46, #67 ) ;
#55 = AXIS2_PLACEMENT_3D ( 'NONE', #118, #181, #128 ) ;
#56 = AXIS2_PLACEMENT_3D ( 'NONE', #177, #173, #174 ) ;
#57 = AXIS2_PLACEMENT_3D ( 'NONE', #143, #113, #139 ) ;
#58 = AXIS2_PLACEMENT_3D ( 'NONE', #108, #99, #106 ) ;
#59 = AXIS2_PLACEMENT_3D ( 'NONE', #179, #178, #116 ) ;
#60 = AXIS2_PLACEMENT_3D ( 'NONE', #75, #182, #158 ) ;
#61 = AXIS2_PLACEMENT_3D ( 'NONE', #114, #117, #109 ) ;
#62 =( GEOMETRIC_REPRESENTATION_CONTEXT ( 3 ) GLOBAL_UNCERTAINTY_ASSIGNED_CONTEXT ( ( #73 ) ) GLOBAL_UNIT_ASSIGNED_CONTEXT ( ( #189, #187, #186 ) ) REPRESENTATION_CONTEXT ( 'NONE', 'WORKASPACE' ) );
#63 =( GEOMETRIC_REPRESENTATION_CONTEXT ( 3 ) GLOBAL_UNCERTAINTY_ASSIGNED_CONTEXT ( ( #72 ) ) GLOBAL_UNIT_ASSIGNED_CONTEXT ( ( #85, #88, #83 ) ) REPRESENTATION_CONTEXT ( 'NONE', 'WORKASPACE' ) );
#64 = AXIS2_PLACEMENT_3D ( 'NONE', #74, #150, #149 ) ;
#65 =( GEOMETRIC_REPRESENTATION_CONTEXT ( 3 ) GLOBAL_UNCERTAINTY_ASSIGNED_CONTEXT ( ( #69 ) ) GLOBAL_UNIT_ASSIGNED_CONTEXT ( ( #153, #152, #151 ) ) REPRESENTATION_CONTEXT ( 'NONE', 'WORKASPACE' ) );
#66 = PRODUCT ( '107600002J100A', '107600002J100A', '', ( #148 ) ) ;
#67 = PRODUCT_DEFINITION_CONTEXT ( 'detailed design', #147, 'design' ) ;
#68 = PRODUCT_DEFINITION_SHAPE ( 'NONE', 'NONE',  #54 ) ;
#69 = UNCERTAINTY_MEASURE_WITH_UNIT (LENGTH_MEASURE( 1.000000000000000100E-005 ), #153, 'distance_accuracy_value', 'NONE');
#70 = MANIFOLD_SOLID_BREP ( 'Importato1', #298 ) ;
#71 = ADVANCED_BREP_SHAPE_REPRESENTATION ( '107600002J100A', ( #70, #64 ), #62 ) ;
#72 = UNCERTAINTY_MEASURE_WITH_UNIT (LENGTH_MEASURE( 1.000000000000000100E-005 ), #85, 'distance_accuracy_value', 'NONE');
#73 = UNCERTAINTY_MEASURE_WITH_UNIT (LENGTH_MEASURE( 1.000000000000000100E-005 ), #189, 'distance_accuracy_value', 'NONE');
#74 = CARTESIAN_POINT ( 'NONE',  ( 0.0000000000000000000, 0.0000000000000000000, 0.0000000000000000000 ) ) ;
#75 = CARTESIAN_POINT ( 'NONE',  ( 0.0000000000000000000, 0.0000000000000000000, 0.0000000000000000000 ) ) ;
#76 = CARTESIAN_POINT ( 'NONE',  ( 0.0000000000000000000, 6.460663931999954800, -12.50000000000000000 ) ) ;
#77 = CARTESIAN_POINT ( 'NONE',  ( 0.0000000000000000000, 3.539336068000054100, -12.50000000000000000 ) ) ;
#78 = CARTESIAN_POINT ( 'NONE',  ( 0.0000000000000000000, 0.0000000000000000000, 11.00000000000000000 ) ) ;
#79 = CARTESIAN_POINT ( 'NONE',  ( 1.347111479062088400E-015, 10.00000000000000000, -11.00000000000000000 ) ) ;
#80 = CARTESIAN_POINT ( 'NONE',  ( 0.0000000000000000000, 0.0000000000000000000, 11.35000000000000300 ) ) ;
#81 = CARTESIAN_POINT ( 'NONE',  ( 1.347111479062088400E-015, 0.0000000000000000000, -11.00000000000000000 ) ) ;
#82 = CARTESIAN_POINT ( 'NONE',  ( 0.0000000000000000000, 10.00000000000000000, 11.00000000000000000 ) ) ;
#83 =( NAMED_UNIT ( * ) SI_UNIT ( $, .STERADIAN. ) SOLID_ANGLE_UNIT ( ) );
#84 = DIRECTION ( 'NONE',  ( 0.0000000000000000000, -4.302114220422481600E-015, 1.000000000000000000 ) ) ;
#85 =( LENGTH_UNIT ( ) NAMED_UNIT ( * ) SI_UNIT ( .MILLI., .METRE. ) );
#86 = CARTESIAN_POINT ( 'NONE',  ( 0.0000000000000000000, 10.00000000000000000, 0.0000000000000000000 ) ) ;
#87 = SURFACE_STYLE_USAGE ( .BOTH. , #190 ) ;
#88 =( NAMED_UNIT ( * ) PLANE_ANGLE_UNIT ( ) SI_UNIT ( $, .RADIAN. ) );
#89 = FILL_AREA_STYLE ('',( #90 ) ) ;
#90 = FILL_AREA_STYLE_COLOUR ( '', #243 ) ;
#91 = CARTESIAN_POINT ( 'NONE',  ( 1.530808498934191500E-015, 3.539336068000054100, 12.50000000000000000 ) ) ;
#92 = DIRECTION ( 'NONE',  ( 0.0000000000000000000, 0.0000000000000000000, 1.000000000000000000 ) ) ;
#93 = DIRECTION ( 'NONE',  ( -0.0000000000000000000, 1.000000000000000000, 0.0000000000000000000 ) ) ;
#94 = CARTESIAN_POINT ( 'NONE',  ( 0.0000000000000000000, 10.00000000000000000, 0.0000000000000000000 ) ) ;
#95 = DIRECTION ( 'NONE',  ( -0.0000000000000000000, 1.000000000000000000, 0.0000000000000000000 ) ) ;
#96 = CARTESIAN_POINT ( 'NONE',  ( 1.460391307983218700E-015, 10.00000000000000900, 11.35000000000000000 ) ) ;
#97 = CARTESIAN_POINT ( 'NONE',  ( 1.460391307983218900E-015, 0.0000000000000000000, -11.35000000000000300 ) ) ;
#98 = DIRECTION ( 'NONE',  ( 0.0000000000000000000, 0.0000000000000000000, 1.000000000000000000 ) ) ;
#99 = DIRECTION ( 'NONE',  ( 0.0000000000000000000, -1.000000000000000000, -0.0000000000000000000 ) ) ;
#100 = DIRECTION ( 'NONE',  ( 0.0000000000000000000, -1.000000000000000000, -0.0000000000000000000 ) ) ;
#101 = CARTESIAN_POINT ( 'NONE',  ( 0.0000000000000000000, 0.0000000000000000000, 0.0000000000000000000 ) ) ;
#102 = DIRECTION ( 'NONE',  ( 3.784366730193854300E-017, -0.9510565163015289900, 0.3090169943553257000 ) ) ;
#103 = CARTESIAN_POINT ( 'NONE',  ( 1.389974117032246300E-015, 9.999999999999998200, 11.35000000000000300 ) ) ;
#104 = DIRECTION ( 'NONE',  ( -0.0000000000000000000, 1.000000000000000000, 0.0000000000000000000 ) ) ;
#105 = CARTESIAN_POINT ( 'NONE',  ( 1.347111479062088400E-015, 0.0000000000000000000, -11.00000000000000000 ) ) ;
#106 = DIRECTION ( 'NONE',  ( 0.0000000000000000000, 0.0000000000000000000, 1.000000000000000000 ) ) ;
#107 = CARTESIAN_POINT ( 'NONE',  ( 0.0000000000000000000, 6.460663932000001000, -12.50000000000000000 ) ) ;
#108 = CARTESIAN_POINT ( 'NONE',  ( 0.0000000000000000000, 0.0000000000000000000, 0.0000000000000000000 ) ) ;
#109 = DIRECTION ( 'NONE',  ( 0.0000000000000000000, 0.0000000000000000000, -1.000000000000000000 ) ) ;
#110 = CARTESIAN_POINT ( 'NONE',  ( 0.0000000000000000000, 0.0000000000000000000, 0.0000000000000000000 ) ) ;
#111 = DIRECTION ( 'NONE',  ( -0.0000000000000000000, 1.000000000000000000, 0.0000000000000000000 ) ) ;
#112 = CARTESIAN_POINT ( 'NONE',  ( 0.0000000000000000000, 6.460663931999954800, 0.0000000000000000000 ) ) ;
#113 = DIRECTION ( 'NONE',  ( 0.0000000000000000000, -1.000000000000000000, 0.0000000000000000000 ) ) ;
#114 = CARTESIAN_POINT ( 'NONE',  ( 0.0000000000000000000, 10.00000000000000900, 6.628338189386814000E-031 ) ) ;
#115 = DIRECTION ( 'NONE',  ( 0.0000000000000000000, 1.000000000000000000, 0.0000000000000000000 ) ) ;
#116 = DIRECTION ( 'NONE',  ( 0.0000000000000000000, 0.0000000000000000000, 1.000000000000000000 ) ) ;
#117 = DIRECTION ( 'NONE',  ( 0.0000000000000000000, 1.000000000000000000, 7.641953638664348000E-017 ) ) ;
#118 = CARTESIAN_POINT ( 'NONE',  ( 0.0000000000000000000, 0.0000000000000000000, 0.0000000000000000000 ) ) ;
#119 = CARTESIAN_POINT ( 'NONE',  ( 1.530808498934191500E-015, 6.460663932000001000, 12.50000000000000000 ) ) ;
#120 = DIRECTION ( 'NONE',  ( 0.0000000000000000000, 1.000000000000000000, 7.641953638664348000E-017 ) ) ;
#121 = CARTESIAN_POINT ( 'NONE',  ( 1.530808498934191500E-015, 6.460663931999954800, 12.50000000000000000 ) ) ;
#122 = CARTESIAN_POINT ( 'NONE',  ( 0.0000000000000000000, 10.00000000000000900, -11.35000000000000000 ) ) ;
#123 = CARTESIAN_POINT ( 'NONE',  ( 0.0000000000000000000, 0.0000000000000000000, 0.0000000000000000000 ) ) ;
#124 = CARTESIAN_POINT ( 'NONE',  ( 0.0000000000000000000, 3.539336068000054100, 0.0000000000000000000 ) ) ;
#125 = DIRECTION ( 'NONE',  ( 0.0000000000000000000, 0.0000000000000000000, 1.000000000000000000 ) ) ;
#126 = CARTESIAN_POINT ( 'NONE',  ( 0.0000000000000000000, 0.0000000000000000000, 11.00000000000000000 ) ) ;
#127 = DIRECTION ( 'NONE',  ( 0.0000000000000000000, 0.0000000000000000000, -1.000000000000000000 ) ) ;
#128 = DIRECTION ( 'NONE',  ( 0.0000000000000000000, 0.0000000000000000000, 1.000000000000000000 ) ) ;
#129 = DIRECTION ( 'NONE',  ( 1.000000000000000000, 3.677613769070831000E-015, 0.0000000000000000000 ) ) ;
#130 = DIRECTION ( 'NONE',  ( 3.784366730193853000E-017, 0.9510565163015289900, -0.3090169943553257000 ) ) ;
#131 = CARTESIAN_POINT ( 'NONE',  ( 0.0000000000000000000, 6.460663931999954800, 0.0000000000000000000 ) ) ;
#132 = DIRECTION ( 'NONE',  ( 1.000000000000000000, 3.677613769070831000E-015, 0.0000000000000000000 ) ) ;
#133 = DIRECTION ( 'NONE',  ( 0.0000000000000000000, -0.9510565163015289900, -0.3090169943553258100 ) ) ;
#134 = DIRECTION ( 'NONE',  ( 0.0000000000000000000, 0.9510565163015289900, 0.3090169943553257000 ) ) ;
#135 = DIRECTION ( 'NONE',  ( 0.0000000000000000000, -4.302114220422481600E-015, 1.000000000000000000 ) ) ;
#136 = CARTESIAN_POINT ( 'NONE',  ( 0.0000000000000000000, 3.539336068000054100, 0.0000000000000000000 ) ) ;
#137 = CARTESIAN_POINT ( 'NONE',  ( 1.389974117032246300E-015, 0.0000000000000000000, -11.35000000000000300 ) ) ;
#138 = DIRECTION ( 'NONE',  ( 0.0000000000000000000, 1.000000000000000000, 0.0000000000000000000 ) ) ;
#139 = DIRECTION ( 'NONE',  ( 0.0000000000000000000, 0.0000000000000000000, -1.000000000000000000 ) ) ;
#140 = PLANE ( 'NONE',  #59 ) ;
#141 = CARTESIAN_POINT ( 'NONE',  ( 0.0000000000000000000, 0.0000000000000000000, 11.35000000000000300 ) ) ;
#142 = CARTESIAN_POINT ( 'NONE',  ( 0.0000000000000000000, 10.00000000000000200, -11.35000000000000300 ) ) ;
#143 = CARTESIAN_POINT ( 'NONE',  ( 0.0000000000000000000, 6.460663932000001000, 0.0000000000000000000 ) ) ;
#144 = DIRECTION ( 'NONE',  ( 0.0000000000000000000, 0.0000000000000000000, 1.000000000000000000 ) ) ;
#145 = DIRECTION ( 'NONE',  ( 0.0000000000000000000, -1.000000000000000000, 0.0000000000000000000 ) ) ;
#146 = APPLICATION_PROTOCOL_DEFINITION ( 'draft international standard', 'automotive_design', 1998, #147 ) ;
#147 = APPLICATION_CONTEXT ( 'automotive_design' ) ;
#148 = PRODUCT_CONTEXT ( 'NONE', #157, 'mechanical' ) ;
#149 = DIRECTION ( 'NONE',  ( 1.000000000000000000, 0.0000000000000000000, 0.0000000000000000000 ) ) ;
#150 = DIRECTION ( 'NONE',  ( 0.0000000000000000000, 0.0000000000000000000, 1.000000000000000000 ) ) ;
#151 =( NAMED_UNIT ( * ) SI_UNIT ( $, .STERADIAN. ) SOLID_ANGLE_UNIT ( ) );
#152 =( NAMED_UNIT ( * ) PLANE_ANGLE_UNIT ( ) SI_UNIT ( $, .RADIAN. ) );
#153 =( LENGTH_UNIT ( ) NAMED_UNIT ( * ) SI_UNIT ( .MILLI., .METRE. ) );
#154 = SURFACE_STYLE_USAGE ( .BOTH. , #155 ) ;
#155 = SURFACE_SIDE_STYLE ('',( #284 ) ) ;
#156 = FILL_AREA_STYLE ('',( #193 ) ) ;
#157 = APPLICATION_CONTEXT ( 'automotive_design' ) ;
#158 = DIRECTION ( 'NONE',  ( 0.0000000000000000000, 0.0000000000000000000, 1.000000000000000000 ) ) ;
#159 = DIRECTION ( 'NONE',  ( 0.0000000000000000000, 0.0000000000000000000, -1.000000000000000000 ) ) ;
#160 = CARTESIAN_POINT ( 'NONE',  ( 0.0000000000000000000, 10.00000000000000000, 0.0000000000000000000 ) ) ;
#161 = APPLICATION_PROTOCOL_DEFINITION ( 'draft international standard', 'automotive_design', 1998, #157 ) ;
#162 = CARTESIAN_POINT ( 'NONE',  ( 0.0000000000000000000, 0.0000000000000000000, 0.0000000000000000000 ) ) ;
#163 = CARTESIAN_POINT ( 'NONE',  ( 0.0000000000000000000, 10.00000000000000900, 6.628338189386814000E-031 ) ) ;
#164 = DIRECTION ( 'NONE',  ( 0.0000000000000000000, 0.0000000000000000000, 1.000000000000000000 ) ) ;
#165 = DIRECTION ( 'NONE',  ( -0.0000000000000000000, 1.000000000000000000, 0.0000000000000000000 ) ) ;
#166 = DIRECTION ( 'NONE',  ( 0.0000000000000000000, -1.000000000000000000, 0.0000000000000000000 ) ) ;
#167 = CARTESIAN_POINT ( 'NONE',  ( 0.0000000000000000000, 6.460663932000001000, 0.0000000000000000000 ) ) ;
#168 = DIRECTION ( 'NONE',  ( 0.0000000000000000000, 1.528390727732869400E-016, -1.000000000000000000 ) ) ;
#169 = CARTESIAN_POINT ( 'NONE',  ( 0.0000000000000000000, 10.00000000000000000, 0.0000000000000000000 ) ) ;
#170 = CARTESIAN_POINT ( 'NONE',  ( -11.48620000000000000, 0.0000000000000000000, 11.48620000000000000 ) ) ;
#171 = DIRECTION ( 'NONE',  ( -0.0000000000000000000, -1.000000000000000000, -7.641953638664348000E-017 ) ) ;
#172 = DIRECTION ( 'NONE',  ( 0.0000000000000000000, -1.000000000000000000, 0.0000000000000000000 ) ) ;
#173 = DIRECTION ( 'NONE',  ( -0.0000000000000000000, 1.000000000000000000, 0.0000000000000000000 ) ) ;
#174 = DIRECTION ( 'NONE',  ( 0.0000000000000000000, 0.0000000000000000000, 1.000000000000000000 ) ) ;
#175 = PLANE ( 'NONE',  #53 ) ;
#176 = DIRECTION ( 'NONE',  ( 0.0000000000000000000, 0.0000000000000000000, -1.000000000000000000 ) ) ;
#177 = CARTESIAN_POINT ( 'NONE',  ( 0.0000000000000000000, 0.0000000000000000000, 0.0000000000000000000 ) ) ;
#178 = DIRECTION ( 'NONE',  ( 0.0000000000000000000, 1.000000000000000000, 0.0000000000000000000 ) ) ;
#179 = CARTESIAN_POINT ( 'NONE',  ( -11.48620000000000000, 10.00000000000000000, -11.48620000000000000 ) ) ;
#180 = DIRECTION ( 'NONE',  ( 0.0000000000000000000, -1.000000000000000000, 0.0000000000000000000 ) ) ;
#181 = DIRECTION ( 'NONE',  ( -0.0000000000000000000, 1.000000000000000000, 0.0000000000000000000 ) ) ;
#182 = DIRECTION ( 'NONE',  ( -0.0000000000000000000, 1.000000000000000000, 0.0000000000000000000 ) ) ;
#183 = DIRECTION ( 'NONE',  ( -0.0000000000000000000, -1.000000000000000000, -7.641953638664348000E-017 ) ) ;
#184 = DIRECTION ( 'NONE',  ( 0.0000000000000000000, 1.528390727732869400E-016, -1.000000000000000000 ) ) ;
#185 = DIRECTION ( 'NONE',  ( 0.0000000000000000000, -1.000000000000000000, -0.0000000000000000000 ) ) ;
#186 =( NAMED_UNIT ( * ) SI_UNIT ( $, .STERADIAN. ) SOLID_ANGLE_UNIT ( ) );
#187 =( NAMED_UNIT ( * ) PLANE_ANGLE_UNIT ( ) SI_UNIT ( $, .RADIAN. ) );
#188 = DIRECTION ( 'NONE',  ( 0.0000000000000000000, -1.000000000000000000, -0.0000000000000000000 ) ) ;
#189 =( LENGTH_UNIT ( ) NAMED_UNIT ( * ) SI_UNIT ( .MILLI., .METRE. ) );
#190 = SURFACE_SIDE_STYLE ('',( #266 ) ) ;
#191 = DIRECTION ( 'NONE',  ( 0.0000000000000000000, -1.000000000000000000, 0.0000000000000000000 ) ) ;
#192 = DIRECTION ( 'NONE',  ( 0.0000000000000000000, -1.000000000000000000, 0.0000000000000000000 ) ) ;
#193 = FILL_AREA_STYLE_COLOUR ( '', #286 ) ;
#194 = DIRECTION ( 'NONE',  ( 0.0000000000000000000, 0.0000000000000000000, 1.000000000000000000 ) ) ;
#195 = FACE_OUTER_BOUND ( 'NONE', #276, .T. ) ;
#196 = CYLINDRICAL_SURFACE ( 'NONE', #48, 11.00000000000000000 ) ;
#197 = VERTEX_POINT ( 'NONE', #122 ) ;
#198 = FACE_BOUND ( 'NONE', #273, .T. ) ;
#199 = FACE_OUTER_BOUND ( 'NONE', #277, .T. ) ;
#200 = FACE_OUTER_BOUND ( 'NONE', #271, .T. ) ;
#201 = CONICAL_SURFACE ( 'NONE', #47, 11.35000000000000300, 0.3141592653383478700 ) ;
#202 = FACE_OUTER_BOUND ( 'NONE', #275, .T. ) ;
#203 = FACE_BOUND ( 'NONE', #269, .T. ) ;
#204 = FACE_OUTER_BOUND ( 'NONE', #281, .T. ) ;
#205 = CONICAL_SURFACE ( 'NONE', #52, 11.35000000000000300, 0.3141592653383478700 ) ;
#206 = CYLINDRICAL_SURFACE ( 'NONE', #57, 12.50000000000000000 ) ;
#207 = CYLINDRICAL_SURFACE ( 'NONE', #56, 11.00000000000000000 ) ;
#208 = FACE_OUTER_BOUND ( 'NONE', #282, .T. ) ;
#209 = LINE ( 'NONE', #107, #210 ) ;
#210 = VECTOR ( 'NONE', #180, 1000.000000000000000 ) ;
#211 = CIRCLE ( 'NONE', #16, 11.35000000000000300 ) ;
#212 = FACE_OUTER_BOUND ( 'NONE', #268, .T. ) ;
#213 = CONICAL_SURFACE ( 'NONE', #55, 11.35000000000000300, 0.3141592653383478200 ) ;
#214 = LINE ( 'NONE', #137, #233 ) ;
#215 = CIRCLE ( 'NONE', #17, 12.50000000000000000 ) ;
#216 = CIRCLE ( 'NONE', #61, 11.35000000000000000 ) ;
#217 = CONICAL_SURFACE ( 'NONE', #60, 11.35000000000000300, 0.3141592653383478200 ) ;
#218 = CIRCLE ( 'NONE', #21, 12.50000000000000000 ) ;
#219 = LINE ( 'NONE', #142, #237 ) ;
#220 = ORIENTED_EDGE ( 'NONE', *, *, #51, .F. ) ;
#221 = ORIENTED_EDGE ( 'NONE', *, *, #22, .F. ) ;
#222 = ORIENTED_EDGE ( 'NONE', *, *, #25, .F. ) ;
#223 = ORIENTED_EDGE ( 'NONE', *, *, #13, .T. ) ;
#224 = ORIENTED_EDGE ( 'NONE', *, *, #22, .T. ) ;
#225 = ORIENTED_EDGE ( 'NONE', *, *, #14, .T. ) ;
#226 = ORIENTED_EDGE ( 'NONE', *, *, #49, .F. ) ;
#227 = ORIENTED_EDGE ( 'NONE', *, *, #44, .F. ) ;
#228 = ORIENTED_EDGE ( 'NONE', *, *, #20, .F. ) ;
#229 = ORIENTED_EDGE ( 'NONE', *, *, #20, .T. ) ;
#230 = ORIENTED_EDGE ( 'NONE', *, *, #13, .F. ) ;
#231 = LINE ( 'NONE', #141, #239 ) ;
#232 = ORIENTED_EDGE ( 'NONE', *, *, #19, .T. ) ;
#233 = VECTOR ( 'NONE', #130, 1000.000000000000100 ) ;
#234 = ORIENTED_EDGE ( 'NONE', *, *, #18, .F. ) ;
#235 = ORIENTED_EDGE ( 'NONE', *, *, #29, .F. ) ;
#236 = CIRCLE ( 'NONE', #12, 12.50000000000000000 ) ;
#237 = VECTOR ( 'NONE', #133, 1000.000000000000100 ) ;
#238 = CIRCLE ( 'NONE', #38, 11.00000000000000000 ) ;
#239 = VECTOR ( 'NONE', #134, 1000.000000000000100 ) ;
#240 = CIRCLE ( 'NONE', #24, 11.35000000000000000 ) ;
#241 = CIRCLE ( 'NONE', #23, 11.00000000000000000 ) ;
#242 = CIRCLE ( 'NONE', #34, 12.50000000000000000 ) ;
#243 = COLOUR_RGB ( '',1.000000000000000000, 1.000000000000000000, 1.000000000000000000 ) ;
#244 = LINE ( 'NONE', #119, #246 ) ;
#245 = CIRCLE ( 'NONE', #58, 11.35000000000000300 ) ;
#246 = VECTOR ( 'NONE', #191, 1000.000000000000000 ) ;
#247 = LINE ( 'NONE', #126, #249 ) ;
#248 = LINE ( 'NONE', #105, #263 ) ;
#249 = VECTOR ( 'NONE', #93, 1000.000000000000000 ) ;
#250 = SHAPE_DEFINITION_REPRESENTATION ( #68, #71 ) ;
#251 = ORIENTED_EDGE ( 'NONE', *, *, #28, .F. ) ;
#252 = CIRCLE ( 'NONE', #31, 11.00000000000000000 ) ;
#253 = LINE ( 'NONE', #103, #264 ) ;
#254 = ORIENTED_EDGE ( 'NONE', *, *, #26, .T. ) ;
#255 = ORIENTED_EDGE ( 'NONE', *, *, #29, .T. ) ;
#256 = VERTEX_POINT ( 'NONE', #97 ) ;
#257 = ORIENTED_EDGE ( 'NONE', *, *, #27, .F. ) ;
#258 = VERTEX_POINT ( 'NONE', #82 ) ;
#259 = VERTEX_POINT ( 'NONE', #81 ) ;
#260 = ORIENTED_EDGE ( 'NONE', *, *, #15, .T. ) ;
#261 = ORIENTED_EDGE ( 'NONE', *, *, #33, .F. ) ;
#262 = CIRCLE ( 'NONE', #39, 11.00000000000000000 ) ;
#263 = VECTOR ( 'NONE', #104, 1000.000000000000000 ) ;
#264 = VECTOR ( 'NONE', #102, 1000.000000000000100 ) ;
#265 = PRESENTATION_STYLE_ASSIGNMENT (( #87 ) ) ;
#266 = SURFACE_STYLE_FILL_AREA ( #89 ) ;
#267 = VERTEX_POINT ( 'NONE', #96 ) ;
#268 = EDGE_LOOP ( 'NONE', ( #230, #232, #235, #221 ) ) ;
#269 = EDGE_LOOP ( 'NONE', ( #226, #257 ) ) ;
#270 = EDGE_LOOP ( 'NONE', ( #220, #291, #229, #313 ) ) ;
#271 = EDGE_LOOP ( 'NONE', ( #299, #307, #234, #228 ) ) ;
#272 = EDGE_LOOP ( 'NONE', ( #288, #292, #308, #261 ) ) ;
#273 = EDGE_LOOP ( 'NONE', ( #227, #251 ) ) ;
#274 = VERTEX_POINT ( 'NONE', #80 ) ;
#275 = EDGE_LOOP ( 'NONE', ( #287, #310, #224, #222 ) ) ;
#276 = EDGE_LOOP ( 'NONE', ( #303, #312, #255, #290 ) ) ;
#277 = EDGE_LOOP ( 'NONE', ( #301, #223 ) ) ;
#278 = FACE_OUTER_BOUND ( 'NONE', #283, .T. ) ;
#279 = FACE_OUTER_BOUND ( 'NONE', #270, .T. ) ;
#280 = CYLINDRICAL_SURFACE ( 'NONE', #50, 12.50000000000000000 ) ;
#281 = EDGE_LOOP ( 'NONE', ( #294, #260, #225, #293 ) ) ;
#282 = EDGE_LOOP ( 'NONE', ( #254, #300 ) ) ;
#283 = EDGE_LOOP ( 'NONE', ( #314, #302, #305, #304 ) ) ;
#284 = SURFACE_STYLE_FILL_AREA ( #156 ) ;
#285 = PRESENTATION_STYLE_ASSIGNMENT (( #154 ) ) ;
#286 = COLOUR_RGB ( '',1.000000000000000000, 1.000000000000000000, 1.000000000000000000 ) ;
#287 = ORIENTED_EDGE ( 'NONE', *, *, #19, .F. ) ;
#288 = ORIENTED_EDGE ( 'NONE', *, *, #44, .T. ) ;
#289 = VERTEX_POINT ( 'NONE', #79 ) ;
#290 = ORIENTED_EDGE ( 'NONE', *, *, #14, .F. ) ;
#291 = ORIENTED_EDGE ( 'NONE', *, *, #26, .F. ) ;
#292 = ORIENTED_EDGE ( 'NONE', *, *, #43, .T. ) ;
#293 = ORIENTED_EDGE ( 'NONE', *, *, #25, .T. ) ;
#294 = ORIENTED_EDGE ( 'NONE', *, *, #30, .F. ) ;
#295 = VERTEX_POINT ( 'NONE', #78 ) ;
#296 = FACE_OUTER_BOUND ( 'NONE', #272, .T. ) ;
#297 = VERTEX_POINT ( 'NONE', #77 ) ;
#298 = CLOSED_SHELL ( 'NONE', ( #6, #4, #10, #3, #1, #7, #5, #2, #8, #9 ) ) ;
#299 = ORIENTED_EDGE ( 'NONE', *, *, #11, .F. ) ;
#300 = ORIENTED_EDGE ( 'NONE', *, *, #11, .T. ) ;
#301 = ORIENTED_EDGE ( 'NONE', *, *, #32, .T. ) ;
#302 = ORIENTED_EDGE ( 'NONE', *, *, #28, .T. ) ;
#303 = ORIENTED_EDGE ( 'NONE', *, *, #18, .T. ) ;
#304 = ORIENTED_EDGE ( 'NONE', *, *, #49, .T. ) ;
#305 = ORIENTED_EDGE ( 'NONE', *, *, #33, .T. ) ;
#306 = VERTEX_POINT ( 'NONE', #91 ) ;
#307 = ORIENTED_EDGE ( 'NONE', *, *, #51, .T. ) ;
#308 = ORIENTED_EDGE ( 'NONE', *, *, #27, .T. ) ;
#309 = VERTEX_POINT ( 'NONE', #76 ) ;
#310 = ORIENTED_EDGE ( 'NONE', *, *, #32, .F. ) ;
#311 = VERTEX_POINT ( 'NONE', #121 ) ;
#312 = ORIENTED_EDGE ( 'NONE', *, *, #30, .T. ) ;
#313 = ORIENTED_EDGE ( 'NONE', *, *, #15, .F. ) ;
#314 = ORIENTED_EDGE ( 'NONE', *, *, #43, .F. ) ;
ENDSEC;
END-ISO-10303-21;
