ISO-10303-21;
HEADER;
/* Generated by software containing ST-Developer
 * from STEP Tools, Inc. (www.steptools.com) 
 */

FILE_DESCRIPTION(
/* description */ ('ROHR'),
/* implementation_level */ '2;1');

FILE_NAME(
/* name */ 'TR 500-11.stp',
/* time_stamp */ '2025-04-28T07:30:52+02:00',
/* author */ ('ertl'),
/* organization */ (''),
/* preprocessor_version */ 'ST-DEVELOPER v20',
/* originating_system */ 'Autodesk Inventor 2025',
/* authorisation */ '');

FILE_SCHEMA (('AUTOMOTIVE_DESIGN { 1 0 10303 214 3 1 1 }'));
ENDSEC;

DATA;
#10=MECHANICAL_DESIGN_GEOMETRIC_PRESENTATION_REPRESENTATION('',(#17),#355);
#11=ITEM_DEFINED_TRANSFORMATION($,$,#209,#236);
#12=(
REPRESENTATION_RELATIONSHIP($,$,#366,#365)
REPRESENTATION_RELATIONSHIP_WITH_TRANSFORMATION(#11)
SHAPE_REPRESENTATION_RELATIONSHIP()
);
#13=CONTEXT_DEPENDENT_SHAPE_REPRESENTATION(#12,#364);
#14=NEXT_ASSEMBLY_USAGE_OCCURRENCE('TR 492-11-F:1','TR 492-11-F:1',
'TR 492-11-F:1',#368,#369,'TR 492-11-F:1');
#15=SHAPE_REPRESENTATION_RELATIONSHIP('SRR','None',#366,#16);
#16=ADVANCED_BREP_SHAPE_REPRESENTATION('',(#18),#354);
#17=STYLED_ITEM('',(#187),#18);
#18=MANIFOLD_SOLID_BREP('Volumenk\X\F6rper7',#171);
#19=CYLINDRICAL_SURFACE('',#231,4.00000000000004);
#20=CYLINDRICAL_SURFACE('',#235,5.5);
#21=LINE('',#316,#27);
#22=LINE('',#332,#28);
#23=LINE('',#338,#29);
#24=LINE('',#341,#30);
#25=LINE('',#346,#31);
#26=LINE('',#348,#32);
#27=VECTOR('',#257,5.32367301929153);
#28=VECTOR('',#278,5.32367301929153);
#29=VECTOR('',#285,4.10000000000006);
#30=VECTOR('',#288,4.00000000000004);
#31=VECTOR('',#295,4.10000000000002);
#32=VECTOR('',#298,5.5);
#33=CONICAL_SURFACE('',#217,5.32367301929153,0.174532925199433);
#34=CONICAL_SURFACE('',#226,5.32367301929153,0.174532925199433);
#35=CONICAL_SURFACE('',#228,4.10000000000006,0.785398163397484);
#36=CONICAL_SURFACE('',#234,4.10000000000002,0.785398163397348);
#37=FACE_BOUND('',#53,.T.);
#38=FACE_BOUND('',#57,.T.);
#39=PLANE('',#215);
#40=PLANE('',#224);
#41=FACE_OUTER_BOUND('',#51,.T.);
#42=FACE_OUTER_BOUND('',#52,.T.);
#43=FACE_OUTER_BOUND('',#54,.T.);
#44=FACE_OUTER_BOUND('',#55,.T.);
#45=FACE_OUTER_BOUND('',#56,.T.);
#46=FACE_OUTER_BOUND('',#58,.T.);
#47=FACE_OUTER_BOUND('',#59,.T.);
#48=FACE_OUTER_BOUND('',#60,.T.);
#49=FACE_OUTER_BOUND('',#61,.T.);
#50=FACE_OUTER_BOUND('',#62,.T.);
#51=EDGE_LOOP('',(#115,#116,#117,#118,#119));
#52=EDGE_LOOP('',(#120));
#53=EDGE_LOOP('',(#121));
#54=EDGE_LOOP('',(#122,#123,#124,#125,#126));
#55=EDGE_LOOP('',(#127,#128,#129,#130,#131));
#56=EDGE_LOOP('',(#132));
#57=EDGE_LOOP('',(#133));
#58=EDGE_LOOP('',(#134,#135,#136,#137,#138));
#59=EDGE_LOOP('',(#139,#140,#141,#142,#143));
#60=EDGE_LOOP('',(#144,#145,#146,#147,#148,#149));
#61=EDGE_LOOP('',(#150,#151,#152,#153,#154));
#62=EDGE_LOOP('',(#155,#156,#157,#158));
#63=CIRCLE('',#211,4.97952611234761);
#64=CIRCLE('',#212,0.2);
#65=CIRCLE('',#213,5.17648766295006);
#66=CIRCLE('',#214,5.17648766295006);
#67=CIRCLE('',#216,4.20000000000009);
#68=CIRCLE('',#218,5.5);
#69=CIRCLE('',#220,5.17648766295005);
#70=CIRCLE('',#221,5.17648766295005);
#71=CIRCLE('',#222,0.2);
#72=CIRCLE('',#223,4.97952611234761);
#73=CIRCLE('',#225,4.2);
#74=CIRCLE('',#227,5.5);
#75=CIRCLE('',#229,4.00000000000004);
#76=CIRCLE('',#230,4.00000000000004);
#77=CIRCLE('',#232,4.00000000000004);
#78=CIRCLE('',#233,4.00000000000004);
#79=VERTEX_POINT('',#304);
#80=VERTEX_POINT('',#306);
#81=VERTEX_POINT('',#308);
#82=VERTEX_POINT('',#312);
#83=VERTEX_POINT('',#315);
#84=VERTEX_POINT('',#319);
#85=VERTEX_POINT('',#320);
#86=VERTEX_POINT('',#323);
#87=VERTEX_POINT('',#327);
#88=VERTEX_POINT('',#330);
#89=VERTEX_POINT('',#334);
#90=VERTEX_POINT('',#335);
#91=VERTEX_POINT('',#340);
#92=VERTEX_POINT('',#342);
#93=EDGE_CURVE('',#79,#79,#63,.T.);
#94=EDGE_CURVE('',#79,#80,#64,.T.);
#95=EDGE_CURVE('',#80,#81,#65,.T.);
#96=EDGE_CURVE('',#81,#80,#66,.T.);
#97=EDGE_CURVE('',#82,#82,#67,.T.);
#98=EDGE_CURVE('',#81,#83,#21,.T.);
#99=EDGE_CURVE('',#83,#83,#68,.T.);
#100=EDGE_CURVE('',#84,#85,#69,.T.);
#101=EDGE_CURVE('',#85,#84,#70,.T.);
#102=EDGE_CURVE('',#84,#86,#71,.T.);
#103=EDGE_CURVE('',#86,#86,#72,.T.);
#104=EDGE_CURVE('',#87,#87,#73,.T.);
#105=EDGE_CURVE('',#88,#88,#74,.T.);
#106=EDGE_CURVE('',#88,#85,#22,.T.);
#107=EDGE_CURVE('',#89,#90,#75,.T.);
#108=EDGE_CURVE('',#90,#89,#76,.T.);
#109=EDGE_CURVE('',#89,#82,#23,.T.);
#110=EDGE_CURVE('',#90,#91,#24,.T.);
#111=EDGE_CURVE('',#92,#91,#77,.T.);
#112=EDGE_CURVE('',#91,#92,#78,.T.);
#113=EDGE_CURVE('',#87,#92,#25,.T.);
#114=EDGE_CURVE('',#83,#88,#26,.T.);
#115=ORIENTED_EDGE('',*,*,#93,.T.);
#116=ORIENTED_EDGE('',*,*,#94,.T.);
#117=ORIENTED_EDGE('',*,*,#95,.T.);
#118=ORIENTED_EDGE('',*,*,#96,.T.);
#119=ORIENTED_EDGE('',*,*,#94,.F.);
#120=ORIENTED_EDGE('',*,*,#93,.F.);
#121=ORIENTED_EDGE('',*,*,#97,.F.);
#122=ORIENTED_EDGE('',*,*,#96,.F.);
#123=ORIENTED_EDGE('',*,*,#98,.T.);
#124=ORIENTED_EDGE('',*,*,#99,.T.);
#125=ORIENTED_EDGE('',*,*,#98,.F.);
#126=ORIENTED_EDGE('',*,*,#95,.F.);
#127=ORIENTED_EDGE('',*,*,#100,.T.);
#128=ORIENTED_EDGE('',*,*,#101,.T.);
#129=ORIENTED_EDGE('',*,*,#102,.T.);
#130=ORIENTED_EDGE('',*,*,#103,.T.);
#131=ORIENTED_EDGE('',*,*,#102,.F.);
#132=ORIENTED_EDGE('',*,*,#103,.F.);
#133=ORIENTED_EDGE('',*,*,#104,.F.);
#134=ORIENTED_EDGE('',*,*,#105,.F.);
#135=ORIENTED_EDGE('',*,*,#106,.T.);
#136=ORIENTED_EDGE('',*,*,#100,.F.);
#137=ORIENTED_EDGE('',*,*,#101,.F.);
#138=ORIENTED_EDGE('',*,*,#106,.F.);
#139=ORIENTED_EDGE('',*,*,#107,.T.);
#140=ORIENTED_EDGE('',*,*,#108,.T.);
#141=ORIENTED_EDGE('',*,*,#109,.T.);
#142=ORIENTED_EDGE('',*,*,#97,.T.);
#143=ORIENTED_EDGE('',*,*,#109,.F.);
#144=ORIENTED_EDGE('',*,*,#107,.F.);
#145=ORIENTED_EDGE('',*,*,#108,.F.);
#146=ORIENTED_EDGE('',*,*,#110,.T.);
#147=ORIENTED_EDGE('',*,*,#111,.F.);
#148=ORIENTED_EDGE('',*,*,#112,.F.);
#149=ORIENTED_EDGE('',*,*,#110,.F.);
#150=ORIENTED_EDGE('',*,*,#104,.T.);
#151=ORIENTED_EDGE('',*,*,#113,.T.);
#152=ORIENTED_EDGE('',*,*,#111,.T.);
#153=ORIENTED_EDGE('',*,*,#112,.T.);
#154=ORIENTED_EDGE('',*,*,#113,.F.);
#155=ORIENTED_EDGE('',*,*,#99,.F.);
#156=ORIENTED_EDGE('',*,*,#114,.T.);
#157=ORIENTED_EDGE('',*,*,#105,.T.);
#158=ORIENTED_EDGE('',*,*,#114,.F.);
#159=TOROIDAL_SURFACE('',#210,4.97952611234761,0.2);
#160=TOROIDAL_SURFACE('',#219,4.97952611234761,0.2);
#161=ADVANCED_FACE('',(#41),#159,.T.);
#162=ADVANCED_FACE('',(#42,#37),#39,.T.);
#163=ADVANCED_FACE('',(#43),#33,.T.);
#164=ADVANCED_FACE('',(#44),#160,.T.);
#165=ADVANCED_FACE('',(#45,#38),#40,.T.);
#166=ADVANCED_FACE('',(#46),#34,.T.);
#167=ADVANCED_FACE('',(#47),#35,.F.);
#168=ADVANCED_FACE('',(#48),#19,.F.);
#169=ADVANCED_FACE('',(#49),#36,.F.);
#170=ADVANCED_FACE('',(#50),#20,.T.);
#171=CLOSED_SHELL('',(#161,#162,#163,#164,#165,#166,#167,#168,#169,#170));
#172=DERIVED_UNIT_ELEMENT(#175,1.);
#173=DERIVED_UNIT_ELEMENT(#357,-3.);
#174=DIMENSIONAL_EXPONENTS(0.,1.,0.,0.,0.,0.,0.);
#175=(
CONVERSION_BASED_UNIT('gram',#177)
MASS_UNIT()
NAMED_UNIT(#174)
);
#176=(
MASS_UNIT()
NAMED_UNIT(*)
SI_UNIT(.KILO.,.GRAM.)
);
#177=MASS_MEASURE_WITH_UNIT(MASS_MEASURE(0.001),#176);
#178=DERIVED_UNIT((#172,#173));
#179=MEASURE_REPRESENTATION_ITEM('density measure',
POSITIVE_RATIO_MEASURE(8.47),#178);
#180=PROPERTY_DEFINITION_REPRESENTATION(#185,#182);
#181=PROPERTY_DEFINITION_REPRESENTATION(#186,#183);
#182=REPRESENTATION('material name',(#184),#354);
#183=REPRESENTATION('density',(#179),#354);
#184=DESCRIPTIVE_REPRESENTATION_ITEM('Messing; CuZn39Pb3',
'Messing; CuZn39Pb3');
#185=PROPERTY_DEFINITION('material property','material name',#369);
#186=PROPERTY_DEFINITION('material property','density of part',#369);
#187=PRESENTATION_STYLE_ASSIGNMENT((#188));
#188=SURFACE_STYLE_USAGE(.BOTH.,#191);
#189=SURFACE_STYLE_RENDERING_WITH_PROPERTIES($,#195,(#190));
#190=SURFACE_STYLE_TRANSPARENT(0.);
#191=SURFACE_SIDE_STYLE('',(#192,#189));
#192=SURFACE_STYLE_FILL_AREA(#193);
#193=FILL_AREA_STYLE('',(#194));
#194=FILL_AREA_STYLE_COLOUR('',#195);
#195=COLOUR_RGB('',0.780392156862745,0.568627450980392,0.113725490196078);
#196=DATE_TIME_ROLE('creation_date');
#197=DATE_TIME_ROLE('creation_date');
#198=APPLIED_DATE_AND_TIME_ASSIGNMENT(#200,#196,(#368));
#199=APPLIED_DATE_AND_TIME_ASSIGNMENT(#201,#197,(#369));
#200=DATE_AND_TIME(#202,#204);
#201=DATE_AND_TIME(#203,#205);
#202=CALENDAR_DATE(2025,24,3);
#203=CALENDAR_DATE(2025,5,3);
#204=LOCAL_TIME(0,0,0.,#206);
#205=LOCAL_TIME(0,0,0.,#207);
#206=COORDINATED_UNIVERSAL_TIME_OFFSET(0,0,.BEHIND.);
#207=COORDINATED_UNIVERSAL_TIME_OFFSET(0,0,.BEHIND.);
#208=AXIS2_PLACEMENT_3D('',#301,#237,#238);
#209=AXIS2_PLACEMENT_3D('',#302,#239,#240);
#210=AXIS2_PLACEMENT_3D('',#303,#241,#242);
#211=AXIS2_PLACEMENT_3D('',#305,#243,#244);
#212=AXIS2_PLACEMENT_3D('',#307,#245,#246);
#213=AXIS2_PLACEMENT_3D('',#309,#247,#248);
#214=AXIS2_PLACEMENT_3D('',#310,#249,#250);
#215=AXIS2_PLACEMENT_3D('',#311,#251,#252);
#216=AXIS2_PLACEMENT_3D('',#313,#253,#254);
#217=AXIS2_PLACEMENT_3D('',#314,#255,#256);
#218=AXIS2_PLACEMENT_3D('',#317,#258,#259);
#219=AXIS2_PLACEMENT_3D('',#318,#260,#261);
#220=AXIS2_PLACEMENT_3D('',#321,#262,#263);
#221=AXIS2_PLACEMENT_3D('',#322,#264,#265);
#222=AXIS2_PLACEMENT_3D('',#324,#266,#267);
#223=AXIS2_PLACEMENT_3D('',#325,#268,#269);
#224=AXIS2_PLACEMENT_3D('',#326,#270,#271);
#225=AXIS2_PLACEMENT_3D('',#328,#272,#273);
#226=AXIS2_PLACEMENT_3D('',#329,#274,#275);
#227=AXIS2_PLACEMENT_3D('',#331,#276,#277);
#228=AXIS2_PLACEMENT_3D('',#333,#279,#280);
#229=AXIS2_PLACEMENT_3D('',#336,#281,#282);
#230=AXIS2_PLACEMENT_3D('',#337,#283,#284);
#231=AXIS2_PLACEMENT_3D('',#339,#286,#287);
#232=AXIS2_PLACEMENT_3D('',#343,#289,#290);
#233=AXIS2_PLACEMENT_3D('',#344,#291,#292);
#234=AXIS2_PLACEMENT_3D('',#345,#293,#294);
#235=AXIS2_PLACEMENT_3D('',#347,#296,#297);
#236=AXIS2_PLACEMENT_3D('',#349,#299,#300);
#237=DIRECTION('axis',(0.,0.,1.));
#238=DIRECTION('refdir',(1.,0.,0.));
#239=DIRECTION('axis',(0.,0.,1.));
#240=DIRECTION('refdir',(1.,0.,0.));
#241=DIRECTION('center_axis',(1.,0.,0.));
#242=DIRECTION('ref_axis',(0.,0.,-1.));
#243=DIRECTION('center_axis',(-1.,0.,0.));
#244=DIRECTION('ref_axis',(0.,-1.,1.83697019872103E-16));
#245=DIRECTION('center_axis',(0.,-1.,-1.22464679914735E-16));
#246=DIRECTION('ref_axis',(0.,-1.22464679914735E-16,1.));
#247=DIRECTION('center_axis',(1.,0.,0.));
#248=DIRECTION('ref_axis',(0.,-1.,3.06161699786838E-17));
#249=DIRECTION('center_axis',(1.,0.,0.));
#250=DIRECTION('ref_axis',(0.,-1.,3.06161699786838E-17));
#251=DIRECTION('center_axis',(1.,0.,0.));
#252=DIRECTION('ref_axis',(0.,0.,-1.));
#253=DIRECTION('center_axis',(1.,0.,0.));
#254=DIRECTION('ref_axis',(0.,-1.,0.));
#255=DIRECTION('center_axis',(-1.,0.,0.));
#256=DIRECTION('ref_axis',(0.,1.,0.));
#257=DIRECTION('',(-0.984807753012208,-0.17364817766693,-2.12657684957577E-17));
#258=DIRECTION('center_axis',(1.,0.,0.));
#259=DIRECTION('ref_axis',(0.,0.,-1.));
#260=DIRECTION('center_axis',(1.,0.,0.));
#261=DIRECTION('ref_axis',(0.,0.,-1.));
#262=DIRECTION('center_axis',(-1.,0.,0.));
#263=DIRECTION('ref_axis',(0.,-1.,3.06161699786838E-17));
#264=DIRECTION('center_axis',(-1.,0.,0.));
#265=DIRECTION('ref_axis',(0.,-1.,3.06161699786838E-17));
#266=DIRECTION('center_axis',(0.,-1.,-1.22464679914735E-16));
#267=DIRECTION('ref_axis',(0.,-1.22464679914735E-16,1.));
#268=DIRECTION('center_axis',(1.,0.,0.));
#269=DIRECTION('ref_axis',(0.,-1.,1.83697019872103E-16));
#270=DIRECTION('center_axis',(-1.,0.,0.));
#271=DIRECTION('ref_axis',(0.,0.,1.));
#272=DIRECTION('center_axis',(-1.,0.,0.));
#273=DIRECTION('ref_axis',(0.,-1.,0.));
#274=DIRECTION('center_axis',(1.,0.,0.));
#275=DIRECTION('ref_axis',(0.,1.,0.));
#276=DIRECTION('center_axis',(1.,0.,0.));
#277=DIRECTION('ref_axis',(0.,0.,-1.));
#278=DIRECTION('',(-0.984807753012208,0.173648177666931,2.12657684957578E-17));
#279=DIRECTION('center_axis',(1.,0.,0.));
#280=DIRECTION('ref_axis',(0.,-1.,0.));
#281=DIRECTION('center_axis',(-1.,0.,0.));
#282=DIRECTION('ref_axis',(0.,-1.,0.));
#283=DIRECTION('center_axis',(-1.,0.,0.));
#284=DIRECTION('ref_axis',(0.,-1.,0.));
#285=DIRECTION('',(0.707106781186522,0.707106781186573,-8.65956056235524E-17));
#286=DIRECTION('center_axis',(1.,0.,0.));
#287=DIRECTION('ref_axis',(0.,1.,0.));
#288=DIRECTION('',(-1.,0.,0.));
#289=DIRECTION('center_axis',(1.,0.,0.));
#290=DIRECTION('ref_axis',(0.,-1.,0.));
#291=DIRECTION('center_axis',(1.,0.,0.));
#292=DIRECTION('ref_axis',(0.,-1.,0.));
#293=DIRECTION('center_axis',(-1.,0.,0.));
#294=DIRECTION('ref_axis',(0.,-1.,0.));
#295=DIRECTION('',(0.707106781186618,-0.707106781186477,8.65956056235407E-17));
#296=DIRECTION('center_axis',(1.,0.,0.));
#297=DIRECTION('ref_axis',(0.,1.,0.));
#298=DIRECTION('',(-1.,0.,0.));
#299=DIRECTION('',(0.,0.,1.));
#300=DIRECTION('',(1.,0.,0.));
#301=CARTESIAN_POINT('',(0.,0.,0.));
#302=CARTESIAN_POINT('',(0.,0.,0.));
#303=CARTESIAN_POINT('Origin',(491.2,0.,0.));
#304=CARTESIAN_POINT('',(491.4,-6.09816071475717E-16,4.97952611234761));
#305=CARTESIAN_POINT('Origin',(491.4,0.,0.));
#306=CARTESIAN_POINT('',(491.234729635533,-6.33936904725755E-16,5.17648766295006));
#307=CARTESIAN_POINT('Origin',(491.2,-6.09816071475717E-16,4.97952611234761));
#308=CARTESIAN_POINT('',(491.234729635533,-5.17648766295006,-6.33936904725756E-16));
#309=CARTESIAN_POINT('Origin',(491.234729635533,0.,-7.92421130907194E-16));
#310=CARTESIAN_POINT('Origin',(491.234729635533,0.,-7.92421130907194E-16));
#311=CARTESIAN_POINT('Origin',(491.4,4.00000000000009,0.));
#312=CARTESIAN_POINT('',(491.4,4.20000000000009,5.14351655641899E-16));
#313=CARTESIAN_POINT('Origin',(491.4,0.,0.));
#314=CARTESIAN_POINT('Origin',(490.4,0.,0.));
#315=CARTESIAN_POINT('',(489.4,-5.5,-6.73555739531044E-16));
#316=CARTESIAN_POINT('',(490.4,-5.32367301929153,-6.5196191227825E-16));
#317=CARTESIAN_POINT('Origin',(489.4,0.,0.));
#318=CARTESIAN_POINT('Origin',(0.2,0.,0.));
#319=CARTESIAN_POINT('',(0.165270364466614,-6.33936904725754E-16,5.17648766295005));
#320=CARTESIAN_POINT('',(0.165270364466614,-5.17648766295005,-6.33936904725754E-16));
#321=CARTESIAN_POINT('Origin',(0.165270364466614,0.,-7.92421130907193E-16));
#322=CARTESIAN_POINT('Origin',(0.165270364466614,0.,-7.92421130907193E-16));
#323=CARTESIAN_POINT('',(0.,-6.09816071475717E-16,4.97952611234761));
#324=CARTESIAN_POINT('Origin',(0.2,-6.09816071475717E-16,4.97952611234761));
#325=CARTESIAN_POINT('Origin',(0.,0.,0.));
#326=CARTESIAN_POINT('Origin',(0.,5.14734603858307,0.));
#327=CARTESIAN_POINT('',(0.,4.2,-5.14351655641888E-16));
#328=CARTESIAN_POINT('Origin',(0.,0.,0.));
#329=CARTESIAN_POINT('Origin',(1.00000000000001,0.,0.));
#330=CARTESIAN_POINT('',(2.00000000000003,-5.5,-6.73555739531045E-16));
#331=CARTESIAN_POINT('Origin',(2.00000000000003,0.,0.));
#332=CARTESIAN_POINT('',(1.00000000000001,-5.32367301929153,-6.5196191227825E-16));
#333=CARTESIAN_POINT('Origin',(491.3,0.,0.));
#334=CARTESIAN_POINT('',(491.2,4.00000000000004,-4.89858719658946E-16));
#335=CARTESIAN_POINT('',(491.2,-4.00000000000004,-4.89858719658946E-16));
#336=CARTESIAN_POINT('Origin',(491.2,0.,0.));
#337=CARTESIAN_POINT('Origin',(491.2,0.,0.));
#338=CARTESIAN_POINT('',(491.3,4.10000000000006,-5.02105187650423E-16));
#339=CARTESIAN_POINT('Origin',(245.7,0.,0.));
#340=CARTESIAN_POINT('',(0.199999999999996,-4.00000000000004,-4.89858719658946E-16));
#341=CARTESIAN_POINT('',(245.7,-4.00000000000004,-4.89858719658946E-16));
#342=CARTESIAN_POINT('',(0.199999999999996,4.00000000000004,4.89858719658946E-16));
#343=CARTESIAN_POINT('Origin',(0.199999999999996,0.,0.));
#344=CARTESIAN_POINT('Origin',(0.199999999999996,0.,0.));
#345=CARTESIAN_POINT('Origin',(0.0999999999999979,0.,0.));
#346=CARTESIAN_POINT('',(0.0999999999999979,4.10000000000002,-5.02105187650417E-16));
#347=CARTESIAN_POINT('Origin',(245.7,0.,0.));
#348=CARTESIAN_POINT('',(245.7,-5.5,-6.73555739531044E-16));
#349=CARTESIAN_POINT('',(0.,0.,0.));
#350=UNCERTAINTY_MEASURE_WITH_UNIT(LENGTH_MEASURE(0.01),#356,
'DISTANCE_ACCURACY_VALUE',
'Maximum model space distance between geometric entities at asserted c
onnectivities');
#351=UNCERTAINTY_MEASURE_WITH_UNIT(LENGTH_MEASURE(0.01),#356,
'DISTANCE_ACCURACY_VALUE',
'Maximum model space distance between geometric entities at asserted c
onnectivities');
#352=UNCERTAINTY_MEASURE_WITH_UNIT(LENGTH_MEASURE(0.01),#356,
'DISTANCE_ACCURACY_VALUE',
'Maximum model space distance between geometric entities at asserted c
onnectivities');
#353=(
GEOMETRIC_REPRESENTATION_CONTEXT(3)
GLOBAL_UNCERTAINTY_ASSIGNED_CONTEXT((#350))
GLOBAL_UNIT_ASSIGNED_CONTEXT((#356,#358,#359))
REPRESENTATION_CONTEXT('','3D')
);
#354=(
GEOMETRIC_REPRESENTATION_CONTEXT(3)
GLOBAL_UNCERTAINTY_ASSIGNED_CONTEXT((#351))
GLOBAL_UNIT_ASSIGNED_CONTEXT((#356,#358,#359))
REPRESENTATION_CONTEXT('','3D')
);
#355=(
GEOMETRIC_REPRESENTATION_CONTEXT(3)
GLOBAL_UNCERTAINTY_ASSIGNED_CONTEXT((#352))
GLOBAL_UNIT_ASSIGNED_CONTEXT((#356,#358,#359))
REPRESENTATION_CONTEXT('','3D')
);
#356=(
LENGTH_UNIT()
NAMED_UNIT(*)
SI_UNIT(.MILLI.,.METRE.)
);
#357=(
LENGTH_UNIT()
NAMED_UNIT(*)
SI_UNIT(.CENTI.,.METRE.)
);
#358=(
NAMED_UNIT(*)
PLANE_ANGLE_UNIT()
SI_UNIT($,.RADIAN.)
);
#359=(
NAMED_UNIT(*)
SI_UNIT($,.STERADIAN.)
SOLID_ANGLE_UNIT()
);
#360=SHAPE_DEFINITION_REPRESENTATION(#362,#365);
#361=SHAPE_DEFINITION_REPRESENTATION(#363,#366);
#362=PRODUCT_DEFINITION_SHAPE('',$,#368);
#363=PRODUCT_DEFINITION_SHAPE('',$,#369);
#364=PRODUCT_DEFINITION_SHAPE($,$,#14);
#365=SHAPE_REPRESENTATION('',(#208,#236),#353);
#366=SHAPE_REPRESENTATION('',(#209),#354);
#367=PRODUCT_DEFINITION_CONTEXT('part definition',#375,'design');
#368=PRODUCT_DEFINITION('TR 500-11','TR 500-11',#370,#367);
#369=PRODUCT_DEFINITION('TR 492-11-F','TR 492-11-F',#371,#367);
#370=PRODUCT_DEFINITION_FORMATION('-',$,#377);
#371=PRODUCT_DEFINITION_FORMATION('-',$,#378);
#372=PRODUCT_RELATED_PRODUCT_CATEGORY('TR 500-11','TR 500-11',(#377));
#373=PRODUCT_RELATED_PRODUCT_CATEGORY('TR 492-11-F','TR 492-11-F',(#378));
#374=APPLICATION_PROTOCOL_DEFINITION('international standard',
'automotive_design',2009,#375);
#375=APPLICATION_CONTEXT(
'Core Data for Automotive Mechanical Design Process');
#376=PRODUCT_CONTEXT('part definition',#375,'mechanical');
#377=PRODUCT('TR 500-11','TR 500-11','ROHR',(#376));
#378=PRODUCT('TR 492-11-F','TR 492-11-F','ROHR',(#376));
ENDSEC;
END-ISO-10303-21;
