ISO-10303-21;
HEADER;
/* Generated by software containing ST-Developer
 * from STEP Tools, Inc. (www.steptools.com) 
 */

FILE_DESCRIPTION(
/* description */ (''),
/* implementation_level */ '2;1');

FILE_NAME(
/* name */ 'H:\\STEP\\.stp',
/* time_stamp */ '2024-11-06T12:31:41+01:00',
/* author */ ('meier'),
/* organization */ (''),
/* preprocessor_version */ 'ST-DEVELOPER v18.1',
/* originating_system */ 'Autodesk Inventor 2022',
/* authorisation */ '');

FILE_SCHEMA (('AUTOMOTIVE_DESIGN { 1 0 10303 214 3 1 1 }'));
ENDSEC;

DATA;
#10=MECHANICAL_DESIGN_GEOMETRIC_PRESENTATION_REPRESENTATION('',(#24,#25),
#228);
#11=ITEM_DEFINED_TRANSFORMATION($,$,#149,#162);
#12=ITEM_DEFINED_TRANSFORMATION($,$,#158,#163);
#13=(
REPRESENTATION_RELATIONSHIP($,$,#242,#241)
REPRESENTATION_RELATIONSHIP_WITH_TRANSFORMATION(#11)
SHAPE_REPRESENTATION_RELATIONSHIP()
);
#14=(
REPRESENTATION_RELATIONSHIP($,$,#243,#241)
REPRESENTATION_RELATIONSHIP_WITH_TRANSFORMATION(#12)
SHAPE_REPRESENTATION_RELATIONSHIP()
);
#15=CONTEXT_DEPENDENT_SHAPE_REPRESENTATION(#13,#239);
#16=CONTEXT_DEPENDENT_SHAPE_REPRESENTATION(#14,#240);
#17=NEXT_ASSEMBLY_USAGE_OCCURRENCE('CS 12-F:1','CS 12-F:1','CS 12-F:1',
#245,#246,'CS 12-F:1');
#18=NEXT_ASSEMBLY_USAGE_OCCURRENCE('O-RING 100:1','O-RING 100:1',
'O-RING 100:1',#245,#247,'O-RING 100:1');
#19=TOROIDAL_SURFACE('',#159,10.5,1.5);
#20=SHAPE_REPRESENTATION_RELATIONSHIP('SRR','None',#242,#22);
#21=SHAPE_REPRESENTATION_RELATIONSHIP('SRR','None',#243,#23);
#22=ADVANCED_BREP_SHAPE_REPRESENTATION('',(#26),#226);
#23=ADVANCED_BREP_SHAPE_REPRESENTATION('',(#27),#227);
#24=STYLED_ITEM('',(#130),#26);
#25=STYLED_ITEM('',(#131),#27);
#26=MANIFOLD_SOLID_BREP('Volumenk\X\F6rper6',#90);
#27=MANIFOLD_SOLID_BREP('Volumenk\X\F6rper1',#91);
#28=LINE('',#207,#30);
#29=LINE('',#213,#31);
#30=VECTOR('',#176,12.1);
#31=VECTOR('',#185,14.5);
#32=CYLINDRICAL_SURFACE('',#153,12.1);
#33=CYLINDRICAL_SURFACE('',#157,14.5);
#34=FACE_BOUND('',#42,.T.);
#35=FACE_BOUND('',#45,.T.);
#36=FACE_OUTER_BOUND('',#41,.T.);
#37=FACE_OUTER_BOUND('',#43,.T.);
#38=FACE_OUTER_BOUND('',#44,.T.);
#39=FACE_OUTER_BOUND('',#46,.T.);
#40=FACE_OUTER_BOUND('',#47,.T.);
#41=EDGE_LOOP('',(#67));
#42=EDGE_LOOP('',(#68));
#43=EDGE_LOOP('',(#69,#70,#71,#72));
#44=EDGE_LOOP('',(#73));
#45=EDGE_LOOP('',(#74));
#46=EDGE_LOOP('',(#75,#76,#77,#78));
#47=EDGE_LOOP('',(#79,#80,#81,#82));
#48=CIRCLE('',#151,14.5);
#49=CIRCLE('',#152,12.1);
#50=CIRCLE('',#154,12.1);
#51=CIRCLE('',#156,14.5);
#52=CIRCLE('',#160,1.5);
#53=CIRCLE('',#161,9.);
#54=VERTEX_POINT('',#201);
#55=VERTEX_POINT('',#203);
#56=VERTEX_POINT('',#206);
#57=VERTEX_POINT('',#210);
#58=VERTEX_POINT('',#216);
#59=EDGE_CURVE('',#54,#54,#48,.T.);
#60=EDGE_CURVE('',#55,#55,#49,.T.);
#61=EDGE_CURVE('',#55,#56,#28,.T.);
#62=EDGE_CURVE('',#56,#56,#50,.T.);
#63=EDGE_CURVE('',#57,#57,#51,.T.);
#64=EDGE_CURVE('',#54,#57,#29,.T.);
#65=EDGE_CURVE('',#58,#58,#52,.T.);
#66=EDGE_CURVE('',#58,#58,#53,.T.);
#67=ORIENTED_EDGE('',*,*,#59,.T.);
#68=ORIENTED_EDGE('',*,*,#60,.F.);
#69=ORIENTED_EDGE('',*,*,#60,.T.);
#70=ORIENTED_EDGE('',*,*,#61,.T.);
#71=ORIENTED_EDGE('',*,*,#62,.F.);
#72=ORIENTED_EDGE('',*,*,#61,.F.);
#73=ORIENTED_EDGE('',*,*,#63,.F.);
#74=ORIENTED_EDGE('',*,*,#62,.T.);
#75=ORIENTED_EDGE('',*,*,#59,.F.);
#76=ORIENTED_EDGE('',*,*,#64,.T.);
#77=ORIENTED_EDGE('',*,*,#63,.T.);
#78=ORIENTED_EDGE('',*,*,#64,.F.);
#79=ORIENTED_EDGE('',*,*,#65,.F.);
#80=ORIENTED_EDGE('',*,*,#66,.T.);
#81=ORIENTED_EDGE('',*,*,#65,.T.);
#82=ORIENTED_EDGE('',*,*,#66,.F.);
#83=PLANE('',#150);
#84=PLANE('',#155);
#85=ADVANCED_FACE('',(#36,#34),#83,.T.);
#86=ADVANCED_FACE('',(#37),#32,.F.);
#87=ADVANCED_FACE('',(#38,#35),#84,.T.);
#88=ADVANCED_FACE('',(#39),#33,.T.);
#89=ADVANCED_FACE('',(#40),#19,.T.);
#90=CLOSED_SHELL('',(#85,#86,#87,#88));
#91=CLOSED_SHELL('',(#89));
#92=DERIVED_UNIT_ELEMENT(#97,1.);
#93=DERIVED_UNIT_ELEMENT(#230,-3.);
#94=DERIVED_UNIT_ELEMENT(#97,1.);
#95=DERIVED_UNIT_ELEMENT(#230,-3.);
#96=DIMENSIONAL_EXPONENTS(1.,0.,0.,0.,0.,0.,0.);
#97=(
CONVERSION_BASED_UNIT('gram',#99)
MASS_UNIT()
NAMED_UNIT(#96)
);
#98=(
MASS_UNIT()
NAMED_UNIT(*)
SI_UNIT(.KILO.,.GRAM.)
);
#99=MASS_MEASURE_WITH_UNIT(MASS_MEASURE(0.001),#98);
#100=DERIVED_UNIT((#92,#93));
#101=DERIVED_UNIT((#94,#95));
#102=MEASURE_REPRESENTATION_ITEM('density measure',
POSITIVE_RATIO_MEASURE(8.03),#100);
#103=MEASURE_REPRESENTATION_ITEM('density measure',
POSITIVE_RATIO_MEASURE(1.96),#101);
#104=PROPERTY_DEFINITION_REPRESENTATION(#114,#108);
#105=PROPERTY_DEFINITION_REPRESENTATION(#115,#109);
#106=PROPERTY_DEFINITION_REPRESENTATION(#116,#110);
#107=PROPERTY_DEFINITION_REPRESENTATION(#117,#111);
#108=REPRESENTATION('material name',(#112),#226);
#109=REPRESENTATION('density',(#102),#226);
#110=REPRESENTATION('material name',(#113),#227);
#111=REPRESENTATION('density',(#103),#227);
#112=DESCRIPTIVE_REPRESENTATION_ITEM('Edelstahl; 1.4305',
'Edelstahl; 1.4305');
#113=DESCRIPTIVE_REPRESENTATION_ITEM('FKM; PERTEC\X\AE','FKM; PERTEC\X\AE');
#114=PROPERTY_DEFINITION('material property','material name',#246);
#115=PROPERTY_DEFINITION('material property','density of part',#246);
#116=PROPERTY_DEFINITION('material property','material name',#247);
#117=PROPERTY_DEFINITION('material property','density of part',#247);
#118=DATE_TIME_ROLE('creation_date');
#119=DATE_TIME_ROLE('creation_date');
#120=APPLIED_DATE_AND_TIME_ASSIGNMENT(#122,#118,(#246));
#121=APPLIED_DATE_AND_TIME_ASSIGNMENT(#123,#119,(#247));
#122=DATE_AND_TIME(#124,#126);
#123=DATE_AND_TIME(#125,#127);
#124=CALENDAR_DATE(2024,25,10);
#125=CALENDAR_DATE(2020,15,12);
#126=LOCAL_TIME(0,0,0.,#128);
#127=LOCAL_TIME(0,0,0.,#129);
#128=COORDINATED_UNIVERSAL_TIME_OFFSET(0,0,.BEHIND.);
#129=COORDINATED_UNIVERSAL_TIME_OFFSET(0,0,.BEHIND.);
#130=PRESENTATION_STYLE_ASSIGNMENT((#132));
#131=PRESENTATION_STYLE_ASSIGNMENT((#133));
#132=SURFACE_STYLE_USAGE(.BOTH.,#138);
#133=SURFACE_STYLE_USAGE(.BOTH.,#139);
#134=SURFACE_STYLE_RENDERING_WITH_PROPERTIES($,#146,(#136));
#135=SURFACE_STYLE_RENDERING_WITH_PROPERTIES($,#147,(#137));
#136=SURFACE_STYLE_TRANSPARENT(0.);
#137=SURFACE_STYLE_TRANSPARENT(0.);
#138=SURFACE_SIDE_STYLE('',(#140,#134));
#139=SURFACE_SIDE_STYLE('',(#141,#135));
#140=SURFACE_STYLE_FILL_AREA(#142);
#141=SURFACE_STYLE_FILL_AREA(#143);
#142=FILL_AREA_STYLE('',(#144));
#143=FILL_AREA_STYLE('',(#145));
#144=FILL_AREA_STYLE_COLOUR('',#146);
#145=FILL_AREA_STYLE_COLOUR('',#147);
#146=COLOUR_RGB('',0.780392156862745,0.780392156862745,0.8);
#147=COLOUR_RGB('',0.258823529411765,0.258823529411765,0.258823529411765);
#148=AXIS2_PLACEMENT_3D('placement',#198,#164,#165);
#149=AXIS2_PLACEMENT_3D('placement',#199,#166,#167);
#150=AXIS2_PLACEMENT_3D('',#200,#168,#169);
#151=AXIS2_PLACEMENT_3D('',#202,#170,#171);
#152=AXIS2_PLACEMENT_3D('',#204,#172,#173);
#153=AXIS2_PLACEMENT_3D('',#205,#174,#175);
#154=AXIS2_PLACEMENT_3D('',#208,#177,#178);
#155=AXIS2_PLACEMENT_3D('',#209,#179,#180);
#156=AXIS2_PLACEMENT_3D('',#211,#181,#182);
#157=AXIS2_PLACEMENT_3D('',#212,#183,#184);
#158=AXIS2_PLACEMENT_3D('placement',#214,#186,#187);
#159=AXIS2_PLACEMENT_3D('',#215,#188,#189);
#160=AXIS2_PLACEMENT_3D('',#217,#190,#191);
#161=AXIS2_PLACEMENT_3D('',#218,#192,#193);
#162=AXIS2_PLACEMENT_3D('',#219,#194,#195);
#163=AXIS2_PLACEMENT_3D('',#220,#196,#197);
#164=DIRECTION('axis',(0.,0.,1.));
#165=DIRECTION('refdir',(1.,0.,0.));
#166=DIRECTION('axis',(0.,0.,1.));
#167=DIRECTION('refdir',(1.,0.,0.));
#168=DIRECTION('center_axis',(1.,0.,0.));
#169=DIRECTION('ref_axis',(0.,0.,-1.));
#170=DIRECTION('center_axis',(1.,0.,0.));
#171=DIRECTION('ref_axis',(0.,0.,-1.));
#172=DIRECTION('center_axis',(1.,0.,0.));
#173=DIRECTION('ref_axis',(0.,0.,-1.));
#174=DIRECTION('center_axis',(1.,0.,0.));
#175=DIRECTION('ref_axis',(0.,1.,0.));
#176=DIRECTION('',(-1.,0.,0.));
#177=DIRECTION('center_axis',(1.,0.,0.));
#178=DIRECTION('ref_axis',(0.,0.,-1.));
#179=DIRECTION('center_axis',(-1.,0.,0.));
#180=DIRECTION('ref_axis',(0.,0.,1.));
#181=DIRECTION('center_axis',(1.,0.,0.));
#182=DIRECTION('ref_axis',(0.,0.,-1.));
#183=DIRECTION('center_axis',(1.,0.,0.));
#184=DIRECTION('ref_axis',(0.,1.,0.));
#185=DIRECTION('',(-1.,0.,0.));
#186=DIRECTION('axis',(0.,0.,1.));
#187=DIRECTION('refdir',(1.,0.,0.));
#188=DIRECTION('center_axis',(0.,0.,1.));
#189=DIRECTION('ref_axis',(1.,0.,0.));
#190=DIRECTION('center_axis',(1.22464679914735E-16,-1.,0.));
#191=DIRECTION('ref_axis',(-1.,-1.22464679914735E-16,0.));
#192=DIRECTION('center_axis',(0.,0.,-1.));
#193=DIRECTION('ref_axis',(1.,0.,0.));
#194=DIRECTION('',(0.,0.,1.));
#195=DIRECTION('',(1.,0.,0.));
#196=DIRECTION('',(1.,6.12323399573677E-17,-6.12323399573677E-17));
#197=DIRECTION('',(-6.12323399571331E-17,-3.83009326491272E-12,-1.));
#198=CARTESIAN_POINT('',(0.,0.,0.));
#199=CARTESIAN_POINT('',(0.,0.,0.));
#200=CARTESIAN_POINT('Origin',(2.3,12.1,0.));
#201=CARTESIAN_POINT('',(2.3,-14.5,-1.77573785876366E-15));
#202=CARTESIAN_POINT('Origin',(2.3,0.,0.));
#203=CARTESIAN_POINT('',(2.3,-12.1,-1.4818226269683E-15));
#204=CARTESIAN_POINT('Origin',(2.3,0.,0.));
#205=CARTESIAN_POINT('Origin',(1.15,0.,0.));
#206=CARTESIAN_POINT('',(0.,-12.1,-1.4818226269683E-15));
#207=CARTESIAN_POINT('',(1.15,-12.1,-1.4818226269683E-15));
#208=CARTESIAN_POINT('Origin',(0.,0.,0.));
#209=CARTESIAN_POINT('Origin',(0.,14.5,0.));
#210=CARTESIAN_POINT('',(1.38777878078145E-16,-14.5,-1.77573785876366E-15));
#211=CARTESIAN_POINT('Origin',(0.,0.,0.));
#212=CARTESIAN_POINT('Origin',(1.15,0.,0.));
#213=CARTESIAN_POINT('',(1.15,-14.5,-1.77573785876366E-15));
#214=CARTESIAN_POINT('',(0.,0.,0.));
#215=CARTESIAN_POINT('Origin',(0.,0.,0.));
#216=CARTESIAN_POINT('',(-9.,-1.10218211923262E-15,1.83697019872103E-16));
#217=CARTESIAN_POINT('Origin',(-10.5,-1.28587913910472E-15,0.));
#218=CARTESIAN_POINT('Origin',(0.,0.,-1.83697019872103E-16));
#219=CARTESIAN_POINT('',(0.,0.,0.));
#220=CARTESIAN_POINT('',(1.50000000000136,9.1848945842119E-17,-9.1848945842119E-17));
#221=UNCERTAINTY_MEASURE_WITH_UNIT(LENGTH_MEASURE(0.01),#229,
'DISTANCE_ACCURACY_VALUE',
'Maximum model space distance between geometric entities at asserted c
onnectivities');
#222=UNCERTAINTY_MEASURE_WITH_UNIT(LENGTH_MEASURE(0.01),#229,
'DISTANCE_ACCURACY_VALUE',
'Maximum model space distance between geometric entities at asserted c
onnectivities');
#223=UNCERTAINTY_MEASURE_WITH_UNIT(LENGTH_MEASURE(0.01),#229,
'DISTANCE_ACCURACY_VALUE',
'Maximum model space distance between geometric entities at asserted c
onnectivities');
#224=UNCERTAINTY_MEASURE_WITH_UNIT(LENGTH_MEASURE(0.01),#229,
'DISTANCE_ACCURACY_VALUE',
'Maximum model space distance between geometric entities at asserted c
onnectivities');
#225=(
GEOMETRIC_REPRESENTATION_CONTEXT(3)
GLOBAL_UNCERTAINTY_ASSIGNED_CONTEXT((#221))
GLOBAL_UNIT_ASSIGNED_CONTEXT((#229,#231,#232))
REPRESENTATION_CONTEXT('','3D')
);
#226=(
GEOMETRIC_REPRESENTATION_CONTEXT(3)
GLOBAL_UNCERTAINTY_ASSIGNED_CONTEXT((#222))
GLOBAL_UNIT_ASSIGNED_CONTEXT((#229,#231,#232))
REPRESENTATION_CONTEXT('','3D')
);
#227=(
GEOMETRIC_REPRESENTATION_CONTEXT(3)
GLOBAL_UNCERTAINTY_ASSIGNED_CONTEXT((#223))
GLOBAL_UNIT_ASSIGNED_CONTEXT((#229,#231,#232))
REPRESENTATION_CONTEXT('','3D')
);
#228=(
GEOMETRIC_REPRESENTATION_CONTEXT(3)
GLOBAL_UNCERTAINTY_ASSIGNED_CONTEXT((#224))
GLOBAL_UNIT_ASSIGNED_CONTEXT((#229,#231,#232))
REPRESENTATION_CONTEXT('','3D')
);
#229=(
LENGTH_UNIT()
NAMED_UNIT(*)
SI_UNIT(.MILLI.,.METRE.)
);
#230=(
LENGTH_UNIT()
NAMED_UNIT(*)
SI_UNIT(.CENTI.,.METRE.)
);
#231=(
NAMED_UNIT(*)
PLANE_ANGLE_UNIT()
SI_UNIT($,.RADIAN.)
);
#232=(
NAMED_UNIT(*)
SI_UNIT($,.STERADIAN.)
SOLID_ANGLE_UNIT()
);
#233=SHAPE_DEFINITION_REPRESENTATION(#236,#241);
#234=SHAPE_DEFINITION_REPRESENTATION(#237,#242);
#235=SHAPE_DEFINITION_REPRESENTATION(#238,#243);
#236=PRODUCT_DEFINITION_SHAPE('',$,#245);
#237=PRODUCT_DEFINITION_SHAPE('',$,#246);
#238=PRODUCT_DEFINITION_SHAPE('',$,#247);
#239=PRODUCT_DEFINITION_SHAPE($,$,#17);
#240=PRODUCT_DEFINITION_SHAPE($,$,#18);
#241=SHAPE_REPRESENTATION('',(#148,#162,#163),#225);
#242=SHAPE_REPRESENTATION('',(#149),#226);
#243=SHAPE_REPRESENTATION('',(#158),#227);
#244=PRODUCT_DEFINITION_CONTEXT('part definition',#255,'design');
#245=PRODUCT_DEFINITION('Baugruppe5','Baugruppe5',#248,#244);
#246=PRODUCT_DEFINITION('L\X\DCDECKE','CS 12-F',#249,#244);
#247=PRODUCT_DEFINITION('ENG-005489','O-RING 100',#250,#244);
#248=PRODUCT_DEFINITION_FORMATION('',$,#257);
#249=PRODUCT_DEFINITION_FORMATION('-',$,#258);
#250=PRODUCT_DEFINITION_FORMATION('AC',$,#259);
#251=PRODUCT_RELATED_PRODUCT_CATEGORY('Baugruppe5','Baugruppe5',(#257));
#252=PRODUCT_RELATED_PRODUCT_CATEGORY('CS 12-F','CS 12-F',(#258));
#253=PRODUCT_RELATED_PRODUCT_CATEGORY('O-RING 100','O-RING 100',(#259));
#254=APPLICATION_PROTOCOL_DEFINITION('international standard',
'automotive_design',2009,#255);
#255=APPLICATION_CONTEXT(
'Core Data for Automotive Mechanical Design Process');
#256=PRODUCT_CONTEXT('part definition',#255,'mechanical');
#257=PRODUCT('Baugruppe5','Baugruppe5',$,(#256));
#258=PRODUCT('L\X\DCDECKE','CS 12-F','DICHTRING',(#256));
#259=PRODUCT('ENG-005489','O-RING 100',
'O-RING FKM; PERTEC\X\AE 18,00X3,00',(#256));
ENDSEC;
END-ISO-10303-21;
