ISO-10303-21;
HEADER;
/* Generated by software containing ST-Developer
 * from STEP Tools, Inc. (www.steptools.com) 
 */

FILE_DESCRIPTION(
/* description */ ('KAMMERDICHTUNG'),
/* implementation_level */ '2;1');

FILE_NAME(
/* name */ 'H:\\STEP\\CS 38 H.stp',
/* time_stamp */ '2024-11-06T12:05:46+01:00',
/* author */ (''),
/* organization */ (''),
/* preprocessor_version */ 'ST-DEVELOPER v18.1',
/* originating_system */ 'Autodesk Inventor 2022',
/* authorisation */ '');

FILE_SCHEMA (('AUTOMOTIVE_DESIGN { 1 0 10303 214 3 1 1 }'));
ENDSEC;

DATA;
#10=MECHANICAL_DESIGN_GEOMETRIC_PRESENTATION_REPRESENTATION('',(#24,#25),
#234);
#11=ITEM_DEFINED_TRANSFORMATION($,$,#155,#168);
#12=ITEM_DEFINED_TRANSFORMATION($,$,#164,#169);
#13=(
REPRESENTATION_RELATIONSHIP($,$,#248,#247)
REPRESENTATION_RELATIONSHIP_WITH_TRANSFORMATION(#11)
SHAPE_REPRESENTATION_RELATIONSHIP()
);
#14=(
REPRESENTATION_RELATIONSHIP($,$,#249,#247)
REPRESENTATION_RELATIONSHIP_WITH_TRANSFORMATION(#12)
SHAPE_REPRESENTATION_RELATIONSHIP()
);
#15=CONTEXT_DEPENDENT_SHAPE_REPRESENTATION(#13,#245);
#16=CONTEXT_DEPENDENT_SHAPE_REPRESENTATION(#14,#246);
#17=NEXT_ASSEMBLY_USAGE_OCCURRENCE('CS38-F:1','CS38-F:1','CS38-F:1',#251,
#252,'CS38-F:1');
#18=NEXT_ASSEMBLY_USAGE_OCCURRENCE('O-RING 335:1','O-RING 335:1',
'O-RING 335:1',#251,#253,'O-RING 335:1');
#19=TOROIDAL_SURFACE('',#165,8.25,1.25);
#20=SHAPE_REPRESENTATION_RELATIONSHIP('SRR','None',#248,#22);
#21=SHAPE_REPRESENTATION_RELATIONSHIP('SRR','None',#249,#23);
#22=ADVANCED_BREP_SHAPE_REPRESENTATION('',(#26),#232);
#23=ADVANCED_BREP_SHAPE_REPRESENTATION('',(#27),#233);
#24=STYLED_ITEM('',(#118),#26);
#25=STYLED_ITEM('',(#119),#27);
#26=MANIFOLD_SOLID_BREP('Volumenk\X\F6rper5',#90);
#27=MANIFOLD_SOLID_BREP('Volumenk\X\F6rper4',#91);
#28=FACE_BOUND('',#39,.T.);
#29=FACE_BOUND('',#42,.T.);
#30=PLANE('',#159);
#31=PLANE('',#163);
#32=FACE_OUTER_BOUND('',#37,.T.);
#33=FACE_OUTER_BOUND('',#38,.T.);
#34=FACE_OUTER_BOUND('',#40,.T.);
#35=FACE_OUTER_BOUND('',#41,.T.);
#36=FACE_OUTER_BOUND('',#43,.T.);
#37=EDGE_LOOP('',(#67,#68,#69,#70));
#38=EDGE_LOOP('',(#71));
#39=EDGE_LOOP('',(#72));
#40=EDGE_LOOP('',(#73,#74,#75,#76));
#41=EDGE_LOOP('',(#77));
#42=EDGE_LOOP('',(#78));
#43=EDGE_LOOP('',(#79,#80,#81,#82));
#44=LINE('',#210,#46);
#45=LINE('',#217,#47);
#46=VECTOR('',#178,12.);
#47=VECTOR('',#187,9.75);
#48=CIRCLE('',#157,12.);
#49=CIRCLE('',#158,12.);
#50=CIRCLE('',#160,9.75);
#51=CIRCLE('',#162,9.75);
#52=CIRCLE('',#166,1.25);
#53=CIRCLE('',#167,7.);
#54=VERTEX_POINT('',#207);
#55=VERTEX_POINT('',#209);
#56=VERTEX_POINT('',#213);
#57=VERTEX_POINT('',#216);
#58=VERTEX_POINT('',#222);
#59=EDGE_CURVE('',#54,#54,#48,.T.);
#60=EDGE_CURVE('',#54,#55,#44,.T.);
#61=EDGE_CURVE('',#55,#55,#49,.T.);
#62=EDGE_CURVE('',#56,#56,#50,.T.);
#63=EDGE_CURVE('',#56,#57,#45,.T.);
#64=EDGE_CURVE('',#57,#57,#51,.T.);
#65=EDGE_CURVE('',#58,#58,#52,.T.);
#66=EDGE_CURVE('',#58,#58,#53,.T.);
#67=ORIENTED_EDGE('',*,*,#59,.F.);
#68=ORIENTED_EDGE('',*,*,#60,.T.);
#69=ORIENTED_EDGE('',*,*,#61,.T.);
#70=ORIENTED_EDGE('',*,*,#60,.F.);
#71=ORIENTED_EDGE('',*,*,#59,.T.);
#72=ORIENTED_EDGE('',*,*,#62,.F.);
#73=ORIENTED_EDGE('',*,*,#62,.T.);
#74=ORIENTED_EDGE('',*,*,#63,.T.);
#75=ORIENTED_EDGE('',*,*,#64,.F.);
#76=ORIENTED_EDGE('',*,*,#63,.F.);
#77=ORIENTED_EDGE('',*,*,#61,.F.);
#78=ORIENTED_EDGE('',*,*,#64,.T.);
#79=ORIENTED_EDGE('',*,*,#65,.F.);
#80=ORIENTED_EDGE('',*,*,#66,.T.);
#81=ORIENTED_EDGE('',*,*,#65,.T.);
#82=ORIENTED_EDGE('',*,*,#66,.F.);
#83=CYLINDRICAL_SURFACE('',#156,12.);
#84=CYLINDRICAL_SURFACE('',#161,9.75);
#85=ADVANCED_FACE('',(#32),#83,.T.);
#86=ADVANCED_FACE('',(#33,#28),#30,.T.);
#87=ADVANCED_FACE('',(#34),#84,.F.);
#88=ADVANCED_FACE('',(#35,#29),#31,.T.);
#89=ADVANCED_FACE('',(#36),#19,.T.);
#90=CLOSED_SHELL('',(#85,#86,#87,#88));
#91=CLOSED_SHELL('',(#89));
#92=DERIVED_UNIT_ELEMENT(#97,1.);
#93=DERIVED_UNIT_ELEMENT(#236,-3.);
#94=DERIVED_UNIT_ELEMENT(#97,1.);
#95=DERIVED_UNIT_ELEMENT(#236,-3.);
#96=DIMENSIONAL_EXPONENTS(1.,0.,0.,0.,0.,0.,0.);
#97=(
CONVERSION_BASED_UNIT('gram',#99)
MASS_UNIT()
NAMED_UNIT(#96)
);
#98=(
MASS_UNIT()
NAMED_UNIT(*)
SI_UNIT(.KILO.,.GRAM.)
);
#99=MASS_MEASURE_WITH_UNIT(MASS_MEASURE(0.001),#98);
#100=DERIVED_UNIT((#92,#93));
#101=DERIVED_UNIT((#94,#95));
#102=MEASURE_REPRESENTATION_ITEM('density measure',
POSITIVE_RATIO_MEASURE(8.03),#100);
#103=MEASURE_REPRESENTATION_ITEM('density measure',
POSITIVE_RATIO_MEASURE(0.93),#101);
#104=PROPERTY_DEFINITION_REPRESENTATION(#114,#108);
#105=PROPERTY_DEFINITION_REPRESENTATION(#115,#109);
#106=PROPERTY_DEFINITION_REPRESENTATION(#116,#110);
#107=PROPERTY_DEFINITION_REPRESENTATION(#117,#111);
#108=REPRESENTATION('material name',(#112),#232);
#109=REPRESENTATION('density',(#102),#232);
#110=REPRESENTATION('material name',(#113),#233);
#111=REPRESENTATION('density',(#103),#233);
#112=DESCRIPTIVE_REPRESENTATION_ITEM('Edelstahl; 1.4305',
'Edelstahl; 1.4305');
#113=DESCRIPTIVE_REPRESENTATION_ITEM('FKM; Hitec','FKM; Hitec');
#114=PROPERTY_DEFINITION('material property','material name',#252);
#115=PROPERTY_DEFINITION('material property','density of part',#252);
#116=PROPERTY_DEFINITION('material property','material name',#253);
#117=PROPERTY_DEFINITION('material property','density of part',#253);
#118=PRESENTATION_STYLE_ASSIGNMENT((#120));
#119=PRESENTATION_STYLE_ASSIGNMENT((#121));
#120=SURFACE_STYLE_USAGE(.BOTH.,#126);
#121=SURFACE_STYLE_USAGE(.BOTH.,#127);
#122=SURFACE_STYLE_RENDERING_WITH_PROPERTIES($,#134,(#124));
#123=SURFACE_STYLE_RENDERING_WITH_PROPERTIES($,#135,(#125));
#124=SURFACE_STYLE_TRANSPARENT(0.);
#125=SURFACE_STYLE_TRANSPARENT(0.);
#126=SURFACE_SIDE_STYLE('',(#128,#122));
#127=SURFACE_SIDE_STYLE('',(#129,#123));
#128=SURFACE_STYLE_FILL_AREA(#130);
#129=SURFACE_STYLE_FILL_AREA(#131);
#130=FILL_AREA_STYLE('',(#132));
#131=FILL_AREA_STYLE('',(#133));
#132=FILL_AREA_STYLE_COLOUR('',#134);
#133=FILL_AREA_STYLE_COLOUR('',#135);
#134=COLOUR_RGB('',0.780392156862745,0.780392156862745,0.8);
#135=COLOUR_RGB('',0.258823529411765,0.258823529411765,0.258823529411765);
#136=DATE_TIME_ROLE('creation_date');
#137=DATE_TIME_ROLE('creation_date');
#138=DATE_TIME_ROLE('creation_date');
#139=APPLIED_DATE_AND_TIME_ASSIGNMENT(#142,#136,(#251));
#140=APPLIED_DATE_AND_TIME_ASSIGNMENT(#143,#137,(#252));
#141=APPLIED_DATE_AND_TIME_ASSIGNMENT(#144,#138,(#253));
#142=DATE_AND_TIME(#145,#148);
#143=DATE_AND_TIME(#146,#149);
#144=DATE_AND_TIME(#147,#150);
#145=CALENDAR_DATE(2024,12,6);
#146=CALENDAR_DATE(2024,29,4);
#147=CALENDAR_DATE(2021,13,1);
#148=LOCAL_TIME(0,0,0.,#151);
#149=LOCAL_TIME(0,0,0.,#152);
#150=LOCAL_TIME(0,0,0.,#153);
#151=COORDINATED_UNIVERSAL_TIME_OFFSET(0,0,.BEHIND.);
#152=COORDINATED_UNIVERSAL_TIME_OFFSET(0,0,.BEHIND.);
#153=COORDINATED_UNIVERSAL_TIME_OFFSET(0,0,.BEHIND.);
#154=AXIS2_PLACEMENT_3D('placement',#204,#170,#171);
#155=AXIS2_PLACEMENT_3D('placement',#205,#172,#173);
#156=AXIS2_PLACEMENT_3D('',#206,#174,#175);
#157=AXIS2_PLACEMENT_3D('',#208,#176,#177);
#158=AXIS2_PLACEMENT_3D('',#211,#179,#180);
#159=AXIS2_PLACEMENT_3D('',#212,#181,#182);
#160=AXIS2_PLACEMENT_3D('',#214,#183,#184);
#161=AXIS2_PLACEMENT_3D('',#215,#185,#186);
#162=AXIS2_PLACEMENT_3D('',#218,#188,#189);
#163=AXIS2_PLACEMENT_3D('',#219,#190,#191);
#164=AXIS2_PLACEMENT_3D('placement',#220,#192,#193);
#165=AXIS2_PLACEMENT_3D('',#221,#194,#195);
#166=AXIS2_PLACEMENT_3D('',#223,#196,#197);
#167=AXIS2_PLACEMENT_3D('',#224,#198,#199);
#168=AXIS2_PLACEMENT_3D('',#225,#200,#201);
#169=AXIS2_PLACEMENT_3D('',#226,#202,#203);
#170=DIRECTION('axis',(0.,0.,1.));
#171=DIRECTION('refdir',(1.,0.,0.));
#172=DIRECTION('axis',(0.,0.,1.));
#173=DIRECTION('refdir',(1.,0.,0.));
#174=DIRECTION('center_axis',(1.,0.,0.));
#175=DIRECTION('ref_axis',(0.,1.,0.));
#176=DIRECTION('center_axis',(1.,0.,0.));
#177=DIRECTION('ref_axis',(0.,0.,-1.));
#178=DIRECTION('',(-1.,0.,0.));
#179=DIRECTION('center_axis',(1.,0.,0.));
#180=DIRECTION('ref_axis',(0.,0.,-1.));
#181=DIRECTION('center_axis',(1.,0.,0.));
#182=DIRECTION('ref_axis',(0.,0.,-1.));
#183=DIRECTION('center_axis',(1.,0.,0.));
#184=DIRECTION('ref_axis',(0.,0.,-1.));
#185=DIRECTION('center_axis',(1.,0.,0.));
#186=DIRECTION('ref_axis',(0.,1.,0.));
#187=DIRECTION('',(-1.,0.,0.));
#188=DIRECTION('center_axis',(1.,0.,0.));
#189=DIRECTION('ref_axis',(0.,0.,-1.));
#190=DIRECTION('center_axis',(-1.,0.,0.));
#191=DIRECTION('ref_axis',(0.,0.,1.));
#192=DIRECTION('axis',(0.,0.,1.));
#193=DIRECTION('refdir',(1.,0.,0.));
#194=DIRECTION('center_axis',(0.,0.,-1.));
#195=DIRECTION('ref_axis',(-1.,0.,0.));
#196=DIRECTION('center_axis',(-1.22464679914735E-16,-1.,0.));
#197=DIRECTION('ref_axis',(1.,-1.22464679914735E-16,0.));
#198=DIRECTION('center_axis',(0.,0.,1.));
#199=DIRECTION('ref_axis',(-1.,0.,0.));
#200=DIRECTION('',(0.,0.,1.));
#201=DIRECTION('',(1.,0.,0.));
#202=DIRECTION('',(-1.,-6.12323171010216E-17,6.12323399573681E-17));
#203=DIRECTION('',(6.21799109669938E-17,-0.0155966499261589,0.999878364857987));
#204=CARTESIAN_POINT('',(0.,0.,0.));
#205=CARTESIAN_POINT('',(0.,0.,0.));
#206=CARTESIAN_POINT('Origin',(0.75,0.,0.));
#207=CARTESIAN_POINT('',(1.5,-12.,-1.46957615897682E-15));
#208=CARTESIAN_POINT('Origin',(1.5,0.,0.));
#209=CARTESIAN_POINT('',(0.,-12.,-1.46957615897682E-15));
#210=CARTESIAN_POINT('',(0.75,-12.,-1.46957615897682E-15));
#211=CARTESIAN_POINT('Origin',(0.,0.,0.));
#212=CARTESIAN_POINT('Origin',(1.5,9.75,0.));
#213=CARTESIAN_POINT('',(1.5,-9.75,-1.19403062916867E-15));
#214=CARTESIAN_POINT('Origin',(1.5,0.,0.));
#215=CARTESIAN_POINT('Origin',(0.75,0.,0.));
#216=CARTESIAN_POINT('',(2.77555756156289E-16,-9.75,-1.19403062916867E-15));
#217=CARTESIAN_POINT('',(0.75,-9.75,-1.19403062916867E-15));
#218=CARTESIAN_POINT('Origin',(3.07422497514634E-16,0.,0.));
#219=CARTESIAN_POINT('Origin',(0.,12.,0.));
#220=CARTESIAN_POINT('',(0.,0.,0.));
#221=CARTESIAN_POINT('Origin',(0.,0.,0.));
#222=CARTESIAN_POINT('',(7.,-8.57252759403147E-16,-1.53080849893419E-16));
#223=CARTESIAN_POINT('Origin',(8.25,-1.01033360929657E-15,0.));
#224=CARTESIAN_POINT('Origin',(0.,0.,1.53080849893419E-16));
#225=CARTESIAN_POINT('',(0.,0.,0.));
#226=CARTESIAN_POINT('',(0.249999999997646,5.29395592033938E-22,0.));
#227=UNCERTAINTY_MEASURE_WITH_UNIT(LENGTH_MEASURE(0.01),#235,
'DISTANCE_ACCURACY_VALUE',
'Maximum model space distance between geometric entities at asserted c
onnectivities');
#228=UNCERTAINTY_MEASURE_WITH_UNIT(LENGTH_MEASURE(0.01),#235,
'DISTANCE_ACCURACY_VALUE',
'Maximum model space distance between geometric entities at asserted c
onnectivities');
#229=UNCERTAINTY_MEASURE_WITH_UNIT(LENGTH_MEASURE(0.01),#235,
'DISTANCE_ACCURACY_VALUE',
'Maximum model space distance between geometric entities at asserted c
onnectivities');
#230=UNCERTAINTY_MEASURE_WITH_UNIT(LENGTH_MEASURE(0.01),#235,
'DISTANCE_ACCURACY_VALUE',
'Maximum model space distance between geometric entities at asserted c
onnectivities');
#231=(
GEOMETRIC_REPRESENTATION_CONTEXT(3)
GLOBAL_UNCERTAINTY_ASSIGNED_CONTEXT((#227))
GLOBAL_UNIT_ASSIGNED_CONTEXT((#235,#237,#238))
REPRESENTATION_CONTEXT('','3D')
);
#232=(
GEOMETRIC_REPRESENTATION_CONTEXT(3)
GLOBAL_UNCERTAINTY_ASSIGNED_CONTEXT((#228))
GLOBAL_UNIT_ASSIGNED_CONTEXT((#235,#237,#238))
REPRESENTATION_CONTEXT('','3D')
);
#233=(
GEOMETRIC_REPRESENTATION_CONTEXT(3)
GLOBAL_UNCERTAINTY_ASSIGNED_CONTEXT((#229))
GLOBAL_UNIT_ASSIGNED_CONTEXT((#235,#237,#238))
REPRESENTATION_CONTEXT('','3D')
);
#234=(
GEOMETRIC_REPRESENTATION_CONTEXT(3)
GLOBAL_UNCERTAINTY_ASSIGNED_CONTEXT((#230))
GLOBAL_UNIT_ASSIGNED_CONTEXT((#235,#237,#238))
REPRESENTATION_CONTEXT('','3D')
);
#235=(
LENGTH_UNIT()
NAMED_UNIT(*)
SI_UNIT(.MILLI.,.METRE.)
);
#236=(
LENGTH_UNIT()
NAMED_UNIT(*)
SI_UNIT(.CENTI.,.METRE.)
);
#237=(
NAMED_UNIT(*)
PLANE_ANGLE_UNIT()
SI_UNIT($,.RADIAN.)
);
#238=(
NAMED_UNIT(*)
SI_UNIT($,.STERADIAN.)
SOLID_ANGLE_UNIT()
);
#239=SHAPE_DEFINITION_REPRESENTATION(#242,#247);
#240=SHAPE_DEFINITION_REPRESENTATION(#243,#248);
#241=SHAPE_DEFINITION_REPRESENTATION(#244,#249);
#242=PRODUCT_DEFINITION_SHAPE('',$,#251);
#243=PRODUCT_DEFINITION_SHAPE('',$,#252);
#244=PRODUCT_DEFINITION_SHAPE('',$,#253);
#245=PRODUCT_DEFINITION_SHAPE($,$,#17);
#246=PRODUCT_DEFINITION_SHAPE($,$,#18);
#247=SHAPE_REPRESENTATION('',(#154,#168,#169),#231);
#248=SHAPE_REPRESENTATION('',(#155),#232);
#249=SHAPE_REPRESENTATION('',(#164),#233);
#250=PRODUCT_DEFINITION_CONTEXT('part definition',#261,'design');
#251=PRODUCT_DEFINITION('CS 38 H','CS 38 H',#254,#250);
#252=PRODUCT_DEFINITION('L\X\DCDECKE','CS38-F',#255,#250);
#253=PRODUCT_DEFINITION('L\X\DCDECKE_1','O-RING 335',#256,#250);
#254=PRODUCT_DEFINITION_FORMATION('-',$,#263);
#255=PRODUCT_DEFINITION_FORMATION('-',$,#264);
#256=PRODUCT_DEFINITION_FORMATION('-',$,#265);
#257=PRODUCT_RELATED_PRODUCT_CATEGORY('CS 38 H','CS 38 H',(#263));
#258=PRODUCT_RELATED_PRODUCT_CATEGORY('CS38-F','CS38-F',(#264));
#259=PRODUCT_RELATED_PRODUCT_CATEGORY('O-RING 335','O-RING 335',(#265));
#260=APPLICATION_PROTOCOL_DEFINITION('international standard',
'automotive_design',2009,#261);
#261=APPLICATION_CONTEXT(
'Core Data for Automotive Mechanical Design Process');
#262=PRODUCT_CONTEXT('part definition',#261,'mechanical');
#263=PRODUCT('CS 38 H','CS 38 H','KAMMERDICHTUNG',(#262));
#264=PRODUCT('L\X\DCDECKE','CS38-F','ANSCHLAGRING',(#262));
#265=PRODUCT('L\X\DCDECKE_1','O-RING 335','O-RING FKM; Hitec 14X2,5',(#262));
ENDSEC;
END-ISO-10303-21;
