ISO-10303-21;
HEADER;
/* Generated by software containing ST-Developer
 * from STEP Tools, Inc. (www.steptools.com) 
 */

FILE_DESCRIPTION(
/* description */ ('DICHTRING DIN 3489'),
/* implementation_level */ '2;1');

FILE_NAME(
/* name */ 'K:\\29 Traceparts\\LUEDECKE.3640\\LUDECKE.3640.010\\GOER.s
tp',
/* time_stamp */ '2020-03-27T08:11:15+01:00',
/* author */ ('schnellinger'),
/* organization */ (''),
/* preprocessor_version */ 'ST-DEVELOPER v17',
/* originating_system */ 'Autodesk Inventor 2018',
/* authorisation */ '4418,63 mm^3');

FILE_SCHEMA (('AUTOMOTIVE_DESIGN { 1 0 10303 214 3 1 1 }'));
ENDSEC;

DATA;
#10=MECHANICAL_DESIGN_GEOMETRIC_PRESENTATION_REPRESENTATION('',(#13),#332);
#11=SHAPE_REPRESENTATION_RELATIONSHIP('SRR','None',#339,#12);
#12=ADVANCED_BREP_SHAPE_REPRESENTATION('',(#14),#331);
#13=STYLED_ITEM('',(#348),#14);
#14=MANIFOLD_SOLID_BREP('Volumenk\X\F6rper1',#170);
#15=FACE_BOUND('',#48,.T.);
#16=FACE_BOUND('',#51,.T.);
#17=PLANE('',#210);
#18=PLANE('',#216);
#19=CYLINDRICAL_SURFACE('',#201,10.);
#20=CYLINDRICAL_SURFACE('',#207,14.5);
#21=CYLINDRICAL_SURFACE('',#213,17.25);
#22=LINE('',#297,#27);
#23=LINE('',#301,#28);
#24=LINE('',#310,#29);
#25=LINE('',#316,#30);
#26=LINE('',#327,#31);
#27=VECTOR('',#239,12.75);
#28=VECTOR('',#244,10.);
#29=VECTOR('',#255,12.25);
#30=VECTOR('',#262,14.5);
#31=VECTOR('',#275,17.25);
#32=CONICAL_SURFACE('',#198,12.75,0.942000040379464);
#33=CONICAL_SURFACE('',#204,12.25,1.48352986419518);
#34=FACE_OUTER_BOUND('',#42,.T.);
#35=FACE_OUTER_BOUND('',#43,.T.);
#36=FACE_OUTER_BOUND('',#44,.T.);
#37=FACE_OUTER_BOUND('',#45,.T.);
#38=FACE_OUTER_BOUND('',#46,.T.);
#39=FACE_OUTER_BOUND('',#47,.T.);
#40=FACE_OUTER_BOUND('',#49,.T.);
#41=FACE_OUTER_BOUND('',#50,.T.);
#42=EDGE_LOOP('',(#113,#114,#115,#116,#117,#118,#119,#120));
#43=EDGE_LOOP('',(#121,#122,#123,#124,#125,#126,#127));
#44=EDGE_LOOP('',(#128,#129,#130,#131,#132,#133,#134));
#45=EDGE_LOOP('',(#135,#136,#137,#138,#139,#140));
#46=EDGE_LOOP('',(#141,#142,#143,#144,#145,#146));
#47=EDGE_LOOP('',(#147,#148));
#48=EDGE_LOOP('',(#149,#150));
#49=EDGE_LOOP('',(#151,#152,#153,#154,#155,#156));
#50=EDGE_LOOP('',(#157,#158));
#51=EDGE_LOOP('',(#159,#160));
#52=CIRCLE('',#191,10.);
#53=CIRCLE('',#192,10.);
#54=CIRCLE('',#193,2.);
#55=CIRCLE('',#194,10.8236566046499);
#56=CIRCLE('',#195,10.8236566046499);
#57=CIRCLE('',#196,10.8236566046499);
#58=CIRCLE('',#197,10.);
#59=CIRCLE('',#199,15.5);
#60=CIRCLE('',#200,15.5);
#61=CIRCLE('',#202,10.);
#62=CIRCLE('',#203,10.);
#63=CIRCLE('',#205,14.5);
#64=CIRCLE('',#206,14.5);
#65=CIRCLE('',#208,14.5);
#66=CIRCLE('',#209,14.5);
#67=CIRCLE('',#211,17.25);
#68=CIRCLE('',#212,17.25);
#69=CIRCLE('',#214,17.25);
#70=CIRCLE('',#215,17.25);
#71=VERTEX_POINT('',#280);
#72=VERTEX_POINT('',#281);
#73=VERTEX_POINT('',#283);
#74=VERTEX_POINT('',#285);
#75=VERTEX_POINT('',#287);
#76=VERTEX_POINT('',#289);
#77=VERTEX_POINT('',#294);
#78=VERTEX_POINT('',#295);
#79=VERTEX_POINT('',#300);
#80=VERTEX_POINT('',#302);
#81=VERTEX_POINT('',#306);
#82=VERTEX_POINT('',#307);
#83=VERTEX_POINT('',#312);
#84=VERTEX_POINT('',#313);
#85=VERTEX_POINT('',#318);
#86=VERTEX_POINT('',#319);
#87=VERTEX_POINT('',#323);
#88=VERTEX_POINT('',#324);
#89=EDGE_CURVE('',#71,#72,#52,.T.);
#90=EDGE_CURVE('',#72,#73,#53,.T.);
#91=EDGE_CURVE('',#73,#74,#54,.T.);
#92=EDGE_CURVE('',#74,#75,#55,.T.);
#93=EDGE_CURVE('',#75,#76,#56,.T.);
#94=EDGE_CURVE('',#76,#74,#57,.T.);
#95=EDGE_CURVE('',#73,#71,#58,.T.);
#96=EDGE_CURVE('',#77,#78,#59,.T.);
#97=EDGE_CURVE('',#78,#75,#22,.T.);
#98=EDGE_CURVE('',#78,#77,#60,.T.);
#99=EDGE_CURVE('',#72,#79,#23,.T.);
#100=EDGE_CURVE('',#80,#79,#61,.T.);
#101=EDGE_CURVE('',#79,#80,#62,.T.);
#102=EDGE_CURVE('',#81,#82,#63,.T.);
#103=EDGE_CURVE('',#82,#81,#64,.T.);
#104=EDGE_CURVE('',#82,#79,#24,.T.);
#105=EDGE_CURVE('',#83,#84,#65,.T.);
#106=EDGE_CURVE('',#84,#83,#66,.T.);
#107=EDGE_CURVE('',#84,#82,#25,.T.);
#108=EDGE_CURVE('',#85,#86,#67,.T.);
#109=EDGE_CURVE('',#86,#85,#68,.T.);
#110=EDGE_CURVE('',#87,#88,#69,.T.);
#111=EDGE_CURVE('',#88,#87,#70,.T.);
#112=EDGE_CURVE('',#88,#86,#26,.T.);
#113=ORIENTED_EDGE('',*,*,#89,.T.);
#114=ORIENTED_EDGE('',*,*,#90,.T.);
#115=ORIENTED_EDGE('',*,*,#91,.T.);
#116=ORIENTED_EDGE('',*,*,#92,.T.);
#117=ORIENTED_EDGE('',*,*,#93,.T.);
#118=ORIENTED_EDGE('',*,*,#94,.T.);
#119=ORIENTED_EDGE('',*,*,#91,.F.);
#120=ORIENTED_EDGE('',*,*,#95,.T.);
#121=ORIENTED_EDGE('',*,*,#96,.T.);
#122=ORIENTED_EDGE('',*,*,#97,.T.);
#123=ORIENTED_EDGE('',*,*,#92,.F.);
#124=ORIENTED_EDGE('',*,*,#94,.F.);
#125=ORIENTED_EDGE('',*,*,#93,.F.);
#126=ORIENTED_EDGE('',*,*,#97,.F.);
#127=ORIENTED_EDGE('',*,*,#98,.T.);
#128=ORIENTED_EDGE('',*,*,#89,.F.);
#129=ORIENTED_EDGE('',*,*,#95,.F.);
#130=ORIENTED_EDGE('',*,*,#90,.F.);
#131=ORIENTED_EDGE('',*,*,#99,.T.);
#132=ORIENTED_EDGE('',*,*,#100,.F.);
#133=ORIENTED_EDGE('',*,*,#101,.F.);
#134=ORIENTED_EDGE('',*,*,#99,.F.);
#135=ORIENTED_EDGE('',*,*,#102,.F.);
#136=ORIENTED_EDGE('',*,*,#103,.F.);
#137=ORIENTED_EDGE('',*,*,#104,.T.);
#138=ORIENTED_EDGE('',*,*,#101,.T.);
#139=ORIENTED_EDGE('',*,*,#100,.T.);
#140=ORIENTED_EDGE('',*,*,#104,.F.);
#141=ORIENTED_EDGE('',*,*,#105,.F.);
#142=ORIENTED_EDGE('',*,*,#106,.F.);
#143=ORIENTED_EDGE('',*,*,#107,.T.);
#144=ORIENTED_EDGE('',*,*,#103,.T.);
#145=ORIENTED_EDGE('',*,*,#102,.T.);
#146=ORIENTED_EDGE('',*,*,#107,.F.);
#147=ORIENTED_EDGE('',*,*,#108,.F.);
#148=ORIENTED_EDGE('',*,*,#109,.F.);
#149=ORIENTED_EDGE('',*,*,#105,.T.);
#150=ORIENTED_EDGE('',*,*,#106,.T.);
#151=ORIENTED_EDGE('',*,*,#110,.F.);
#152=ORIENTED_EDGE('',*,*,#111,.F.);
#153=ORIENTED_EDGE('',*,*,#112,.T.);
#154=ORIENTED_EDGE('',*,*,#109,.T.);
#155=ORIENTED_EDGE('',*,*,#108,.T.);
#156=ORIENTED_EDGE('',*,*,#112,.F.);
#157=ORIENTED_EDGE('',*,*,#110,.T.);
#158=ORIENTED_EDGE('',*,*,#111,.T.);
#159=ORIENTED_EDGE('',*,*,#96,.F.);
#160=ORIENTED_EDGE('',*,*,#98,.F.);
#161=TOROIDAL_SURFACE('',#190,12.,2.);
#162=ADVANCED_FACE('',(#34),#161,.T.);
#163=ADVANCED_FACE('',(#35),#32,.F.);
#164=ADVANCED_FACE('',(#36),#19,.F.);
#165=ADVANCED_FACE('',(#37),#33,.T.);
#166=ADVANCED_FACE('',(#38),#20,.T.);
#167=ADVANCED_FACE('',(#39,#15),#17,.T.);
#168=ADVANCED_FACE('',(#40),#21,.T.);
#169=ADVANCED_FACE('',(#41,#16),#18,.T.);
#170=CLOSED_SHELL('',(#162,#163,#164,#165,#166,#167,#168,#169));
#171=DERIVED_UNIT_ELEMENT(#173,1.);
#172=DERIVED_UNIT_ELEMENT(#334,3.);
#173=(
MASS_UNIT()
NAMED_UNIT(*)
SI_UNIT($,.GRAM.)
);
#174=DERIVED_UNIT((#171,#172));
#175=MEASURE_REPRESENTATION_ITEM('density measure',
POSITIVE_RATIO_MEASURE(0.93),#174);
#176=PROPERTY_DEFINITION_REPRESENTATION(#181,#178);
#177=PROPERTY_DEFINITION_REPRESENTATION(#182,#179);
#178=REPRESENTATION('material name',(#180),#331);
#179=REPRESENTATION('density',(#175),#331);
#180=DESCRIPTIVE_REPRESENTATION_ITEM('NBR','NBR');
#181=PROPERTY_DEFINITION('material property','material name',#341);
#182=PROPERTY_DEFINITION('material property','density of part',#341);
#183=DATE_TIME_ROLE('creation_date');
#184=APPLIED_DATE_AND_TIME_ASSIGNMENT(#185,#183,(#341));
#185=DATE_AND_TIME(#186,#187);
#186=CALENDAR_DATE(2017,1,2);
#187=LOCAL_TIME(9,34,47.,#188);
#188=COORDINATED_UNIVERSAL_TIME_OFFSET(0,0,.BEHIND.);
#189=AXIS2_PLACEMENT_3D('placement',#278,#217,#218);
#190=AXIS2_PLACEMENT_3D('',#279,#219,#220);
#191=AXIS2_PLACEMENT_3D('',#282,#221,#222);
#192=AXIS2_PLACEMENT_3D('',#284,#223,#224);
#193=AXIS2_PLACEMENT_3D('',#286,#225,#226);
#194=AXIS2_PLACEMENT_3D('',#288,#227,#228);
#195=AXIS2_PLACEMENT_3D('',#290,#229,#230);
#196=AXIS2_PLACEMENT_3D('',#291,#231,#232);
#197=AXIS2_PLACEMENT_3D('',#292,#233,#234);
#198=AXIS2_PLACEMENT_3D('',#293,#235,#236);
#199=AXIS2_PLACEMENT_3D('',#296,#237,#238);
#200=AXIS2_PLACEMENT_3D('',#298,#240,#241);
#201=AXIS2_PLACEMENT_3D('',#299,#242,#243);
#202=AXIS2_PLACEMENT_3D('',#303,#245,#246);
#203=AXIS2_PLACEMENT_3D('',#304,#247,#248);
#204=AXIS2_PLACEMENT_3D('',#305,#249,#250);
#205=AXIS2_PLACEMENT_3D('',#308,#251,#252);
#206=AXIS2_PLACEMENT_3D('',#309,#253,#254);
#207=AXIS2_PLACEMENT_3D('',#311,#256,#257);
#208=AXIS2_PLACEMENT_3D('',#314,#258,#259);
#209=AXIS2_PLACEMENT_3D('',#315,#260,#261);
#210=AXIS2_PLACEMENT_3D('',#317,#263,#264);
#211=AXIS2_PLACEMENT_3D('',#320,#265,#266);
#212=AXIS2_PLACEMENT_3D('',#321,#267,#268);
#213=AXIS2_PLACEMENT_3D('',#322,#269,#270);
#214=AXIS2_PLACEMENT_3D('',#325,#271,#272);
#215=AXIS2_PLACEMENT_3D('',#326,#273,#274);
#216=AXIS2_PLACEMENT_3D('',#328,#276,#277);
#217=DIRECTION('axis',(0.,0.,1.));
#218=DIRECTION('refdir',(1.,0.,0.));
#219=DIRECTION('center_axis',(0.,0.,-1.));
#220=DIRECTION('ref_axis',(-1.,0.,0.));
#221=DIRECTION('center_axis',(0.,0.,1.));
#222=DIRECTION('ref_axis',(1.22464679914735E-16,-1.,0.));
#223=DIRECTION('center_axis',(0.,0.,1.));
#224=DIRECTION('ref_axis',(1.22464679914735E-16,-1.,0.));
#225=DIRECTION('center_axis',(-1.22464679914735E-16,-1.,0.));
#226=DIRECTION('ref_axis',(1.,-1.22464679914735E-16,0.));
#227=DIRECTION('center_axis',(0.,0.,-1.));
#228=DIRECTION('ref_axis',(0.,-1.,0.));
#229=DIRECTION('center_axis',(0.,0.,-1.));
#230=DIRECTION('ref_axis',(0.,-1.,0.));
#231=DIRECTION('center_axis',(0.,0.,-1.));
#232=DIRECTION('ref_axis',(0.,-1.,0.));
#233=DIRECTION('center_axis',(0.,0.,1.));
#234=DIRECTION('ref_axis',(1.22464679914735E-16,-1.,0.));
#235=DIRECTION('center_axis',(0.,0.,-1.));
#236=DIRECTION('ref_axis',(0.,1.,0.));
#237=DIRECTION('center_axis',(0.,0.,-1.));
#238=DIRECTION('ref_axis',(0.,1.,0.));
#239=DIRECTION('',(9.90416056996864E-17,0.808736084303189,0.588171697675046));
#240=DIRECTION('center_axis',(0.,0.,-1.));
#241=DIRECTION('ref_axis',(0.,1.,0.));
#242=DIRECTION('center_axis',(0.,0.,-1.));
#243=DIRECTION('ref_axis',(0.,1.,0.));
#244=DIRECTION('',(0.,0.,1.));
#245=DIRECTION('center_axis',(0.,0.,-1.));
#246=DIRECTION('ref_axis',(0.,1.,0.));
#247=DIRECTION('center_axis',(0.,0.,-1.));
#248=DIRECTION('ref_axis',(0.,1.,0.));
#249=DIRECTION('center_axis',(0.,0.,-1.));
#250=DIRECTION('ref_axis',(0.,1.,0.));
#251=DIRECTION('center_axis',(0.,0.,-1.));
#252=DIRECTION('ref_axis',(0.,1.,0.));
#253=DIRECTION('center_axis',(0.,0.,-1.));
#254=DIRECTION('ref_axis',(0.,1.,0.));
#255=DIRECTION('',(1.21998664834562E-16,0.996194698091745,0.087155742747659));
#256=DIRECTION('center_axis',(0.,0.,-1.));
#257=DIRECTION('ref_axis',(0.,1.,0.));
#258=DIRECTION('center_axis',(0.,0.,-1.));
#259=DIRECTION('ref_axis',(0.,1.,0.));
#260=DIRECTION('center_axis',(0.,0.,-1.));
#261=DIRECTION('ref_axis',(0.,1.,0.));
#262=DIRECTION('',(0.,0.,1.));
#263=DIRECTION('center_axis',(0.,0.,1.));
#264=DIRECTION('ref_axis',(1.,0.,0.));
#265=DIRECTION('center_axis',(0.,0.,-1.));
#266=DIRECTION('ref_axis',(0.,1.,0.));
#267=DIRECTION('center_axis',(0.,0.,-1.));
#268=DIRECTION('ref_axis',(0.,1.,0.));
#269=DIRECTION('center_axis',(0.,0.,-1.));
#270=DIRECTION('ref_axis',(0.,1.,0.));
#271=DIRECTION('center_axis',(0.,0.,-1.));
#272=DIRECTION('ref_axis',(0.,1.,0.));
#273=DIRECTION('center_axis',(0.,0.,-1.));
#274=DIRECTION('ref_axis',(0.,1.,0.));
#275=DIRECTION('',(0.,0.,1.));
#276=DIRECTION('center_axis',(0.,0.,-1.));
#277=DIRECTION('ref_axis',(-1.,0.,0.));
#278=CARTESIAN_POINT('',(0.,0.,0.));
#279=CARTESIAN_POINT('Origin',(0.,0.,5.01844918340644));
#280=CARTESIAN_POINT('',(-2.44929359829471E-15,10.,5.01844918340644));
#281=CARTESIAN_POINT('',(-1.22464679914735E-15,-10.,5.01844918340644));
#282=CARTESIAN_POINT('Origin',(0.,0.,5.01844918340644));
#283=CARTESIAN_POINT('',(10.,-1.22464679914735E-15,5.01844918340644));
#284=CARTESIAN_POINT('Origin',(0.,0.,5.01844918340644));
#285=CARTESIAN_POINT('',(10.8236566046499,-1.32551564159546E-15,3.40097701480007));
#286=CARTESIAN_POINT('Origin',(12.,-1.46957615897682E-15,5.01844918340644));
#287=CARTESIAN_POINT('',(-1.32551564159546E-15,-10.8236566046499,3.40097701480007));
#288=CARTESIAN_POINT('Origin',(-1.32551564159546E-15,0.,3.40097701480007));
#289=CARTESIAN_POINT('',(0.,10.8236566046499,3.40097701480007));
#290=CARTESIAN_POINT('Origin',(-1.32551564159546E-15,0.,3.40097701480007));
#291=CARTESIAN_POINT('Origin',(-1.32551564159546E-15,0.,3.40097701480007));
#292=CARTESIAN_POINT('Origin',(0.,0.,5.01844918340644));
#293=CARTESIAN_POINT('Origin',(0.,0.,2.));
#294=CARTESIAN_POINT('',(0.,15.5,0.));
#295=CARTESIAN_POINT('',(-1.8982025386784E-15,-15.5,-1.11022302462516E-15));
#296=CARTESIAN_POINT('Origin',(0.,0.,0.));
#297=CARTESIAN_POINT('',(-1.56142466891288E-15,-12.75,2.));
#298=CARTESIAN_POINT('Origin',(0.,0.,0.));
#299=CARTESIAN_POINT('Origin',(0.,0.,7.5));
#300=CARTESIAN_POINT('',(-1.22464679914735E-15,-10.,11.));
#301=CARTESIAN_POINT('',(-1.22464679914735E-15,-10.,7.5));
#302=CARTESIAN_POINT('',(0.,10.,11.));
#303=CARTESIAN_POINT('Origin',(0.,0.,11.));
#304=CARTESIAN_POINT('Origin',(0.,0.,11.));
#305=CARTESIAN_POINT('Origin',(0.,0.,10.8031505070667));
#306=CARTESIAN_POINT('',(0.,14.5,10.6063010141333));
#307=CARTESIAN_POINT('',(-1.77573785876366E-15,-14.5,10.6063010141333));
#308=CARTESIAN_POINT('Origin',(0.,0.,10.6063010141333));
#309=CARTESIAN_POINT('Origin',(0.,0.,10.6063010141333));
#310=CARTESIAN_POINT('',(-1.50019232895551E-15,-12.25,10.8031505070667));
#311=CARTESIAN_POINT('Origin',(0.,0.,8.05315050706667));
#312=CARTESIAN_POINT('',(0.,14.5,5.5));
#313=CARTESIAN_POINT('',(-1.77573785876366E-15,-14.5,5.5));
#314=CARTESIAN_POINT('Origin',(0.,0.,5.5));
#315=CARTESIAN_POINT('Origin',(0.,0.,5.5));
#316=CARTESIAN_POINT('',(-1.77573785876366E-15,-14.5,8.05315050706667));
#317=CARTESIAN_POINT('Origin',(0.,15.875,5.5));
#318=CARTESIAN_POINT('',(0.,17.25,5.5));
#319=CARTESIAN_POINT('',(-2.11251572852918E-15,-17.25,5.5));
#320=CARTESIAN_POINT('Origin',(0.,0.,5.5));
#321=CARTESIAN_POINT('Origin',(0.,0.,5.5));
#322=CARTESIAN_POINT('Origin',(0.,0.,2.75));
#323=CARTESIAN_POINT('',(0.,17.25,0.));
#324=CARTESIAN_POINT('',(-2.11251572852918E-15,-17.25,0.));
#325=CARTESIAN_POINT('Origin',(0.,0.,0.));
#326=CARTESIAN_POINT('Origin',(0.,0.,0.));
#327=CARTESIAN_POINT('',(-2.11251572852918E-15,-17.25,2.75));
#328=CARTESIAN_POINT('Origin',(0.,16.375,0.));
#329=UNCERTAINTY_MEASURE_WITH_UNIT(LENGTH_MEASURE(0.01),#333,
'DISTANCE_ACCURACY_VALUE',
'Maximum model space distance between geometric entities at asserted c
onnectivities');
#330=UNCERTAINTY_MEASURE_WITH_UNIT(LENGTH_MEASURE(0.01),#333,
'DISTANCE_ACCURACY_VALUE',
'Maximum model space distance between geometric entities at asserted c
onnectivities');
#331=(
GEOMETRIC_REPRESENTATION_CONTEXT(3)
GLOBAL_UNCERTAINTY_ASSIGNED_CONTEXT((#329))
GLOBAL_UNIT_ASSIGNED_CONTEXT((#333,#336,#335))
REPRESENTATION_CONTEXT('','3D')
);
#332=(
GEOMETRIC_REPRESENTATION_CONTEXT(3)
GLOBAL_UNCERTAINTY_ASSIGNED_CONTEXT((#330))
GLOBAL_UNIT_ASSIGNED_CONTEXT((#333,#336,#335))
REPRESENTATION_CONTEXT('','3D')
);
#333=(
LENGTH_UNIT()
NAMED_UNIT(*)
SI_UNIT(.MILLI.,.METRE.)
);
#334=(
LENGTH_UNIT()
NAMED_UNIT(*)
SI_UNIT(.CENTI.,.METRE.)
);
#335=(
NAMED_UNIT(*)
SI_UNIT($,.STERADIAN.)
SOLID_ANGLE_UNIT()
);
#336=(
NAMED_UNIT(*)
PLANE_ANGLE_UNIT()
SI_UNIT($,.RADIAN.)
);
#337=SHAPE_DEFINITION_REPRESENTATION(#338,#339);
#338=PRODUCT_DEFINITION_SHAPE('',$,#341);
#339=SHAPE_REPRESENTATION('',(#189),#331);
#340=PRODUCT_DEFINITION_CONTEXT('part definition',#345,'design');
#341=PRODUCT_DEFINITION('20050322B0000000-00','20050322B0000000-00',#342,
#340);
#342=PRODUCT_DEFINITION_FORMATION('00',$,#347);
#343=PRODUCT_RELATED_PRODUCT_CATEGORY('20050322B0000000-00',
'20050322B0000000-00',(#347));
#344=APPLICATION_PROTOCOL_DEFINITION('international standard',
'automotive_design',2009,#345);
#345=APPLICATION_CONTEXT(
'Core Data for Automotive Mechanical Design Process');
#346=PRODUCT_CONTEXT('part definition',#345,'mechanical');
#347=PRODUCT('20050322B0000000-00','20050322B0000000-00',
'DICHTRING DIN 3489',(#346));
#348=PRESENTATION_STYLE_ASSIGNMENT((#349));
#349=SURFACE_STYLE_USAGE(.BOTH.,#350);
#350=SURFACE_SIDE_STYLE('',(#351));
#351=SURFACE_STYLE_FILL_AREA(#352);
#352=FILL_AREA_STYLE('',(#353));
#353=FILL_AREA_STYLE_COLOUR('',#354);
#354=COLOUR_RGB('',0.258823529411765,0.258823529411765,0.258823529411765);
ENDSEC;
END-ISO-10303-21;
