ISO-10303-21;
HEADER;
/* Generated by software containing ST-Developer
 * from STEP Tools, Inc. (www.steptools.com) 
 */

FILE_DESCRIPTION(
/* description */ ('GUMMIDICHTRING'),
/* implementation_level */ '2;1');

FILE_NAME(
/* name */ 'C:\\Users\\ertl\\Desktop\\STEPS TRACEPARTS\\goor.stp',
/* time_stamp */ '2020-04-09T07:35:30+02:00',
/* author */ ('ertl'),
/* organization */ (''),
/* preprocessor_version */ 'ST-DEVELOPER v17',
/* originating_system */ 'Autodesk Inventor 2018',
/* authorisation */ '4819,08 mm^3');

FILE_SCHEMA (('AUTOMOTIVE_DESIGN { 1 0 10303 214 3 1 1 }'));
ENDSEC;

DATA;
#10=MECHANICAL_DESIGN_GEOMETRIC_PRESENTATION_REPRESENTATION('',(#13),#282);
#11=SHAPE_REPRESENTATION_RELATIONSHIP('SRR','None',#289,#12);
#12=ADVANCED_BREP_SHAPE_REPRESENTATION('',(#14),#281);
#13=STYLED_ITEM('',(#298),#14);
#14=MANIFOLD_SOLID_BREP('Volumenk\X\F6rper1',#143);
#15=TOROIDAL_SURFACE('',#180,29.6869482378682,20.);
#16=LINE('',#252,#19);
#17=LINE('',#263,#20);
#18=LINE('',#278,#21);
#19=VECTOR('',#204,15.5);
#20=VECTOR('',#217,17.);
#21=VECTOR('',#236,10.);
#22=CYLINDRICAL_SURFACE('',#168,15.5);
#23=CYLINDRICAL_SURFACE('',#174,17.);
#24=CYLINDRICAL_SURFACE('',#185,10.);
#25=FACE_BOUND('',#36,.T.);
#26=FACE_BOUND('',#39,.T.);
#27=FACE_BOUND('',#42,.T.);
#28=FACE_OUTER_BOUND('',#35,.T.);
#29=FACE_OUTER_BOUND('',#37,.T.);
#30=FACE_OUTER_BOUND('',#38,.T.);
#31=FACE_OUTER_BOUND('',#40,.T.);
#32=FACE_OUTER_BOUND('',#41,.T.);
#33=FACE_OUTER_BOUND('',#43,.T.);
#34=FACE_OUTER_BOUND('',#44,.T.);
#35=EDGE_LOOP('',(#95,#96));
#36=EDGE_LOOP('',(#97,#98));
#37=EDGE_LOOP('',(#99,#100,#101,#102,#103,#104));
#38=EDGE_LOOP('',(#105,#106));
#39=EDGE_LOOP('',(#107,#108));
#40=EDGE_LOOP('',(#109,#110,#111,#112,#113,#114));
#41=EDGE_LOOP('',(#115,#116));
#42=EDGE_LOOP('',(#117,#118));
#43=EDGE_LOOP('',(#119,#120,#121,#122,#123,#124,#125));
#44=EDGE_LOOP('',(#126,#127,#128,#129,#130,#131,#132));
#45=CIRCLE('',#164,15.5);
#46=CIRCLE('',#165,15.5);
#47=CIRCLE('',#166,10.);
#48=CIRCLE('',#167,10.);
#49=CIRCLE('',#169,15.5);
#50=CIRCLE('',#170,15.5);
#51=CIRCLE('',#172,17.);
#52=CIRCLE('',#173,17.);
#53=CIRCLE('',#175,17.);
#54=CIRCLE('',#176,17.);
#55=CIRCLE('',#178,13.);
#56=CIRCLE('',#179,13.);
#57=CIRCLE('',#181,10.);
#58=CIRCLE('',#182,10.);
#59=CIRCLE('',#183,10.);
#60=CIRCLE('',#184,20.);
#61=VERTEX_POINT('',#239);
#62=VERTEX_POINT('',#240);
#63=VERTEX_POINT('',#243);
#64=VERTEX_POINT('',#244);
#65=VERTEX_POINT('',#248);
#66=VERTEX_POINT('',#249);
#67=VERTEX_POINT('',#254);
#68=VERTEX_POINT('',#255);
#69=VERTEX_POINT('',#259);
#70=VERTEX_POINT('',#260);
#71=VERTEX_POINT('',#265);
#72=VERTEX_POINT('',#266);
#73=VERTEX_POINT('',#270);
#74=VERTEX_POINT('',#271);
#75=VERTEX_POINT('',#273);
#76=EDGE_CURVE('',#61,#62,#45,.T.);
#77=EDGE_CURVE('',#62,#61,#46,.T.);
#78=EDGE_CURVE('',#63,#64,#47,.T.);
#79=EDGE_CURVE('',#64,#63,#48,.T.);
#80=EDGE_CURVE('',#65,#66,#49,.T.);
#81=EDGE_CURVE('',#66,#65,#50,.T.);
#82=EDGE_CURVE('',#66,#62,#16,.T.);
#83=EDGE_CURVE('',#67,#68,#51,.T.);
#84=EDGE_CURVE('',#68,#67,#52,.T.);
#85=EDGE_CURVE('',#69,#70,#53,.T.);
#86=EDGE_CURVE('',#70,#69,#54,.T.);
#87=EDGE_CURVE('',#70,#68,#17,.T.);
#88=EDGE_CURVE('',#71,#72,#55,.T.);
#89=EDGE_CURVE('',#72,#71,#56,.T.);
#90=EDGE_CURVE('',#73,#74,#57,.T.);
#91=EDGE_CURVE('',#75,#73,#58,.T.);
#92=EDGE_CURVE('',#74,#75,#59,.T.);
#93=EDGE_CURVE('',#74,#72,#60,.T.);
#94=EDGE_CURVE('',#75,#64,#18,.T.);
#95=ORIENTED_EDGE('',*,*,#76,.F.);
#96=ORIENTED_EDGE('',*,*,#77,.F.);
#97=ORIENTED_EDGE('',*,*,#78,.T.);
#98=ORIENTED_EDGE('',*,*,#79,.T.);
#99=ORIENTED_EDGE('',*,*,#80,.F.);
#100=ORIENTED_EDGE('',*,*,#81,.F.);
#101=ORIENTED_EDGE('',*,*,#82,.T.);
#102=ORIENTED_EDGE('',*,*,#77,.T.);
#103=ORIENTED_EDGE('',*,*,#76,.T.);
#104=ORIENTED_EDGE('',*,*,#82,.F.);
#105=ORIENTED_EDGE('',*,*,#83,.F.);
#106=ORIENTED_EDGE('',*,*,#84,.F.);
#107=ORIENTED_EDGE('',*,*,#80,.T.);
#108=ORIENTED_EDGE('',*,*,#81,.T.);
#109=ORIENTED_EDGE('',*,*,#85,.F.);
#110=ORIENTED_EDGE('',*,*,#86,.F.);
#111=ORIENTED_EDGE('',*,*,#87,.T.);
#112=ORIENTED_EDGE('',*,*,#84,.T.);
#113=ORIENTED_EDGE('',*,*,#83,.T.);
#114=ORIENTED_EDGE('',*,*,#87,.F.);
#115=ORIENTED_EDGE('',*,*,#85,.T.);
#116=ORIENTED_EDGE('',*,*,#86,.T.);
#117=ORIENTED_EDGE('',*,*,#88,.F.);
#118=ORIENTED_EDGE('',*,*,#89,.F.);
#119=ORIENTED_EDGE('',*,*,#90,.F.);
#120=ORIENTED_EDGE('',*,*,#91,.F.);
#121=ORIENTED_EDGE('',*,*,#92,.F.);
#122=ORIENTED_EDGE('',*,*,#93,.T.);
#123=ORIENTED_EDGE('',*,*,#89,.T.);
#124=ORIENTED_EDGE('',*,*,#88,.T.);
#125=ORIENTED_EDGE('',*,*,#93,.F.);
#126=ORIENTED_EDGE('',*,*,#90,.T.);
#127=ORIENTED_EDGE('',*,*,#92,.T.);
#128=ORIENTED_EDGE('',*,*,#94,.T.);
#129=ORIENTED_EDGE('',*,*,#78,.F.);
#130=ORIENTED_EDGE('',*,*,#79,.F.);
#131=ORIENTED_EDGE('',*,*,#94,.F.);
#132=ORIENTED_EDGE('',*,*,#91,.T.);
#133=PLANE('',#163);
#134=PLANE('',#171);
#135=PLANE('',#177);
#136=ADVANCED_FACE('',(#28,#25),#133,.T.);
#137=ADVANCED_FACE('',(#29),#22,.T.);
#138=ADVANCED_FACE('',(#30,#26),#134,.T.);
#139=ADVANCED_FACE('',(#31),#23,.T.);
#140=ADVANCED_FACE('',(#32,#27),#135,.T.);
#141=ADVANCED_FACE('',(#33),#15,.T.);
#142=ADVANCED_FACE('',(#34),#24,.F.);
#143=CLOSED_SHELL('',(#136,#137,#138,#139,#140,#141,#142));
#144=DERIVED_UNIT_ELEMENT(#146,1.);
#145=DERIVED_UNIT_ELEMENT(#284,3.);
#146=(
MASS_UNIT()
NAMED_UNIT(*)
SI_UNIT($,.GRAM.)
);
#147=DERIVED_UNIT((#144,#145));
#148=MEASURE_REPRESENTATION_ITEM('density measure',
POSITIVE_RATIO_MEASURE(0.93),#147);
#149=PROPERTY_DEFINITION_REPRESENTATION(#154,#151);
#150=PROPERTY_DEFINITION_REPRESENTATION(#155,#152);
#151=REPRESENTATION('material name',(#153),#281);
#152=REPRESENTATION('density',(#148),#281);
#153=DESCRIPTIVE_REPRESENTATION_ITEM('NBR','NBR');
#154=PROPERTY_DEFINITION('material property','material name',#291);
#155=PROPERTY_DEFINITION('material property','density of part',#291);
#156=DATE_TIME_ROLE('creation_date');
#157=APPLIED_DATE_AND_TIME_ASSIGNMENT(#158,#156,(#291));
#158=DATE_AND_TIME(#159,#160);
#159=CALENDAR_DATE(2005,16,3);
#160=LOCAL_TIME(12,55,30.,#161);
#161=COORDINATED_UNIVERSAL_TIME_OFFSET(0,0,.BEHIND.);
#162=AXIS2_PLACEMENT_3D('placement',#237,#186,#187);
#163=AXIS2_PLACEMENT_3D('',#238,#188,#189);
#164=AXIS2_PLACEMENT_3D('',#241,#190,#191);
#165=AXIS2_PLACEMENT_3D('',#242,#192,#193);
#166=AXIS2_PLACEMENT_3D('',#245,#194,#195);
#167=AXIS2_PLACEMENT_3D('',#246,#196,#197);
#168=AXIS2_PLACEMENT_3D('',#247,#198,#199);
#169=AXIS2_PLACEMENT_3D('',#250,#200,#201);
#170=AXIS2_PLACEMENT_3D('',#251,#202,#203);
#171=AXIS2_PLACEMENT_3D('',#253,#205,#206);
#172=AXIS2_PLACEMENT_3D('',#256,#207,#208);
#173=AXIS2_PLACEMENT_3D('',#257,#209,#210);
#174=AXIS2_PLACEMENT_3D('',#258,#211,#212);
#175=AXIS2_PLACEMENT_3D('',#261,#213,#214);
#176=AXIS2_PLACEMENT_3D('',#262,#215,#216);
#177=AXIS2_PLACEMENT_3D('',#264,#218,#219);
#178=AXIS2_PLACEMENT_3D('',#267,#220,#221);
#179=AXIS2_PLACEMENT_3D('',#268,#222,#223);
#180=AXIS2_PLACEMENT_3D('',#269,#224,#225);
#181=AXIS2_PLACEMENT_3D('',#272,#226,#227);
#182=AXIS2_PLACEMENT_3D('',#274,#228,#229);
#183=AXIS2_PLACEMENT_3D('',#275,#230,#231);
#184=AXIS2_PLACEMENT_3D('',#276,#232,#233);
#185=AXIS2_PLACEMENT_3D('',#277,#234,#235);
#186=DIRECTION('axis',(0.,0.,1.));
#187=DIRECTION('refdir',(1.,0.,0.));
#188=DIRECTION('center_axis',(0.,0.,1.));
#189=DIRECTION('ref_axis',(1.,0.,0.));
#190=DIRECTION('center_axis',(0.,0.,-1.));
#191=DIRECTION('ref_axis',(0.,1.,2.22044604925031E-16));
#192=DIRECTION('center_axis',(0.,0.,-1.));
#193=DIRECTION('ref_axis',(0.,1.,2.22044604925031E-16));
#194=DIRECTION('center_axis',(0.,0.,-1.));
#195=DIRECTION('ref_axis',(0.,1.,2.22044604925031E-16));
#196=DIRECTION('center_axis',(0.,0.,-1.));
#197=DIRECTION('ref_axis',(0.,1.,2.22044604925031E-16));
#198=DIRECTION('center_axis',(0.,0.,-1.));
#199=DIRECTION('ref_axis',(0.,1.,2.22044604925031E-16));
#200=DIRECTION('center_axis',(0.,0.,-1.));
#201=DIRECTION('ref_axis',(0.,1.,2.22044604925031E-16));
#202=DIRECTION('center_axis',(0.,0.,-1.));
#203=DIRECTION('ref_axis',(0.,1.,2.22044604925031E-16));
#204=DIRECTION('',(0.,0.,1.));
#205=DIRECTION('center_axis',(0.,0.,1.));
#206=DIRECTION('ref_axis',(1.,0.,0.));
#207=DIRECTION('center_axis',(0.,0.,-1.));
#208=DIRECTION('ref_axis',(0.,1.,2.22044604925031E-16));
#209=DIRECTION('center_axis',(0.,0.,-1.));
#210=DIRECTION('ref_axis',(0.,1.,2.22044604925031E-16));
#211=DIRECTION('center_axis',(0.,0.,-1.));
#212=DIRECTION('ref_axis',(0.,1.,2.22044604925031E-16));
#213=DIRECTION('center_axis',(0.,0.,-1.));
#214=DIRECTION('ref_axis',(0.,1.,2.22044604925031E-16));
#215=DIRECTION('center_axis',(0.,0.,-1.));
#216=DIRECTION('ref_axis',(0.,1.,2.22044604925031E-16));
#217=DIRECTION('',(0.,0.,1.));
#218=DIRECTION('center_axis',(0.,0.,-1.));
#219=DIRECTION('ref_axis',(-1.,0.,0.));
#220=DIRECTION('center_axis',(0.,0.,-1.));
#221=DIRECTION('ref_axis',(0.,1.,2.22044604925031E-16));
#222=DIRECTION('center_axis',(0.,0.,-1.));
#223=DIRECTION('ref_axis',(0.,1.,2.22044604925031E-16));
#224=DIRECTION('center_axis',(0.,0.,-1.));
#225=DIRECTION('ref_axis',(-1.,0.,0.));
#226=DIRECTION('center_axis',(0.,0.,-1.));
#227=DIRECTION('ref_axis',(0.,1.,2.22044604925031E-16));
#228=DIRECTION('center_axis',(0.,0.,-1.));
#229=DIRECTION('ref_axis',(0.,1.,2.22044604925031E-16));
#230=DIRECTION('center_axis',(0.,0.,-1.));
#231=DIRECTION('ref_axis',(0.,1.,2.22044604925031E-16));
#232=DIRECTION('center_axis',(-1.22464679914735E-16,-1.,0.));
#233=DIRECTION('ref_axis',(1.,-1.22464679914735E-16,0.));
#234=DIRECTION('center_axis',(0.,0.,-1.));
#235=DIRECTION('ref_axis',(0.,1.,2.22044604925031E-16));
#236=DIRECTION('',(0.,0.,1.));
#237=CARTESIAN_POINT('',(0.,0.,0.));
#238=CARTESIAN_POINT('Origin',(0.,12.75,10.5));
#239=CARTESIAN_POINT('',(0.,15.5,10.5));
#240=CARTESIAN_POINT('',(-1.8982025386784E-15,-15.5,10.5));
#241=CARTESIAN_POINT('Origin',(0.,0.,10.5));
#242=CARTESIAN_POINT('Origin',(0.,0.,10.5));
#243=CARTESIAN_POINT('',(0.,10.,10.5));
#244=CARTESIAN_POINT('',(-1.22464679914735E-15,-10.,10.5));
#245=CARTESIAN_POINT('Origin',(0.,0.,10.5));
#246=CARTESIAN_POINT('Origin',(0.,0.,10.5));
#247=CARTESIAN_POINT('Origin',(0.,0.,7.9));
#248=CARTESIAN_POINT('',(0.,15.5,5.3));
#249=CARTESIAN_POINT('',(-1.8982025386784E-15,-15.5,5.29999999999999));
#250=CARTESIAN_POINT('Origin',(0.,0.,5.3));
#251=CARTESIAN_POINT('Origin',(0.,0.,5.3));
#252=CARTESIAN_POINT('',(-1.8982025386784E-15,-15.5,7.9));
#253=CARTESIAN_POINT('Origin',(0.,16.25,5.3));
#254=CARTESIAN_POINT('',(0.,17.,5.3));
#255=CARTESIAN_POINT('',(-2.0818995585505E-15,-17.,5.3));
#256=CARTESIAN_POINT('Origin',(0.,0.,5.3));
#257=CARTESIAN_POINT('Origin',(0.,0.,5.3));
#258=CARTESIAN_POINT('Origin',(0.,0.,2.65));
#259=CARTESIAN_POINT('',(0.,17.,0.));
#260=CARTESIAN_POINT('',(-2.0818995585505E-15,-17.,-7.7715611723761E-15));
#261=CARTESIAN_POINT('Origin',(0.,0.,0.));
#262=CARTESIAN_POINT('Origin',(0.,0.,0.));
#263=CARTESIAN_POINT('',(-2.0818995585505E-15,-17.,2.65));
#264=CARTESIAN_POINT('Origin',(0.,15.,0.));
#265=CARTESIAN_POINT('',(0.,13.,0.));
#266=CARTESIAN_POINT('',(13.,-1.59204083889156E-15,0.));
#267=CARTESIAN_POINT('Origin',(0.,0.,0.));
#268=CARTESIAN_POINT('Origin',(0.,0.,0.));
#269=CARTESIAN_POINT('Origin',(0.,0.,11.0247792951473));
#270=CARTESIAN_POINT('',(0.,10.,7.5));
#271=CARTESIAN_POINT('',(10.,-1.22464679914735E-15,7.5));
#272=CARTESIAN_POINT('Origin',(0.,0.,7.5));
#273=CARTESIAN_POINT('',(-1.22464679914735E-15,-10.,7.5));
#274=CARTESIAN_POINT('Origin',(0.,0.,7.5));
#275=CARTESIAN_POINT('Origin',(0.,0.,7.5));
#276=CARTESIAN_POINT('Origin',(29.6869482378682,-3.63560261359584E-15,11.0247792951473));
#277=CARTESIAN_POINT('Origin',(0.,0.,9.));
#278=CARTESIAN_POINT('',(-1.22464679914735E-15,-10.,9.));
#279=UNCERTAINTY_MEASURE_WITH_UNIT(LENGTH_MEASURE(0.01),#283,
'DISTANCE_ACCURACY_VALUE',
'Maximum model space distance between geometric entities at asserted c
onnectivities');
#280=UNCERTAINTY_MEASURE_WITH_UNIT(LENGTH_MEASURE(0.01),#283,
'DISTANCE_ACCURACY_VALUE',
'Maximum model space distance between geometric entities at asserted c
onnectivities');
#281=(
GEOMETRIC_REPRESENTATION_CONTEXT(3)
GLOBAL_UNCERTAINTY_ASSIGNED_CONTEXT((#279))
GLOBAL_UNIT_ASSIGNED_CONTEXT((#283,#286,#285))
REPRESENTATION_CONTEXT('','3D')
);
#282=(
GEOMETRIC_REPRESENTATION_CONTEXT(3)
GLOBAL_UNCERTAINTY_ASSIGNED_CONTEXT((#280))
GLOBAL_UNIT_ASSIGNED_CONTEXT((#283,#286,#285))
REPRESENTATION_CONTEXT('','3D')
);
#283=(
LENGTH_UNIT()
NAMED_UNIT(*)
SI_UNIT(.MILLI.,.METRE.)
);
#284=(
LENGTH_UNIT()
NAMED_UNIT(*)
SI_UNIT(.CENTI.,.METRE.)
);
#285=(
NAMED_UNIT(*)
SI_UNIT($,.STERADIAN.)
SOLID_ANGLE_UNIT()
);
#286=(
NAMED_UNIT(*)
PLANE_ANGLE_UNIT()
SI_UNIT($,.RADIAN.)
);
#287=SHAPE_DEFINITION_REPRESENTATION(#288,#289);
#288=PRODUCT_DEFINITION_SHAPE('',$,#291);
#289=SHAPE_REPRESENTATION('',(#162),#281);
#290=PRODUCT_DEFINITION_CONTEXT('part definition',#295,'design');
#291=PRODUCT_DEFINITION('ENG-009813','ENG-009813',#292,#290);
#292=PRODUCT_DEFINITION_FORMATION('00',$,#297);
#293=PRODUCT_RELATED_PRODUCT_CATEGORY('ENG-009813','ENG-009813',(#297));
#294=APPLICATION_PROTOCOL_DEFINITION('international standard',
'automotive_design',2009,#295);
#295=APPLICATION_CONTEXT(
'Core Data for Automotive Mechanical Design Process');
#296=PRODUCT_CONTEXT('part definition',#295,'mechanical');
#297=PRODUCT('ENG-009813','ENG-009813','GUMMIDICHTRING',(#296));
#298=PRESENTATION_STYLE_ASSIGNMENT((#299));
#299=SURFACE_STYLE_USAGE(.BOTH.,#300);
#300=SURFACE_SIDE_STYLE('',(#301));
#301=SURFACE_STYLE_FILL_AREA(#302);
#302=FILL_AREA_STYLE('',(#303));
#303=FILL_AREA_STYLE_COLOUR('',#304);
#304=COLOUR_RGB('',0.258823529411765,0.258823529411765,0.258823529411765);
ENDSEC;
END-ISO-10303-21;
