ISO-10303-21;
HEADER;
/* Generated by software containing ST-Developer
 * from STEP Tools, Inc. (www.steptools.com) 
 */

FILE_DESCRIPTION(
/* description */ ('HPD-RING'),
/* implementation_level */ '2;1');

FILE_NAME(
/* name */ 'K:\\29 Traceparts\\LUEDECKE.3640\\LUDECKE.3640.011\\hpd_12.
stp',
/* time_stamp */ '2020-03-31T12:53:08+02:00',
/* author */ ('schnellinger'),
/* organization */ (''),
/* preprocessor_version */ 'ST-DEVELOPER v17',
/* originating_system */ 'Autodesk Inventor 2018',
/* authorisation */ '320,48 mm^3');

FILE_SCHEMA (('AUTOMOTIVE_DESIGN { 1 0 10303 214 3 1 1 }'));
ENDSEC;

DATA;
#10=MECHANICAL_DESIGN_GEOMETRIC_PRESENTATION_REPRESENTATION('',(#13),#232);
#11=SHAPE_REPRESENTATION_RELATIONSHIP('SRR','None',#239,#12);
#12=ADVANCED_BREP_SHAPE_REPRESENTATION('',(#14),#231);
#13=STYLED_ITEM('',(#248),#14);
#14=MANIFOLD_SOLID_BREP('Volumenk\X\F6rper1',#126);
#15=FACE_BOUND('',#34,.T.);
#16=FACE_BOUND('',#36,.T.);
#17=PLANE('',#149);
#18=PLANE('',#153);
#19=PLANE('',#157);
#20=PLANE('',#158);
#21=FACE_OUTER_BOUND('',#28,.T.);
#22=FACE_OUTER_BOUND('',#29,.T.);
#23=FACE_OUTER_BOUND('',#30,.T.);
#24=FACE_OUTER_BOUND('',#31,.T.);
#25=FACE_OUTER_BOUND('',#32,.T.);
#26=FACE_OUTER_BOUND('',#33,.T.);
#27=FACE_OUTER_BOUND('',#35,.T.);
#28=EDGE_LOOP('',(#86,#87,#88,#89));
#29=EDGE_LOOP('',(#90,#91,#92,#93));
#30=EDGE_LOOP('',(#94,#95,#96,#97));
#31=EDGE_LOOP('',(#98,#99,#100,#101));
#32=EDGE_LOOP('',(#102,#103,#104,#105));
#33=EDGE_LOOP('',(#106));
#34=EDGE_LOOP('',(#107,#108,#109,#110));
#35=EDGE_LOOP('',(#111));
#36=EDGE_LOOP('',(#112,#113,#114,#115));
#37=LINE('',#202,#46);
#38=LINE('',#205,#47);
#39=LINE('',#208,#48);
#40=LINE('',#210,#49);
#41=LINE('',#211,#50);
#42=LINE('',#217,#51);
#43=LINE('',#219,#52);
#44=LINE('',#220,#53);
#45=LINE('',#225,#54);
#46=VECTOR('',#165,10.);
#47=VECTOR('',#168,10.);
#48=VECTOR('',#171,10.);
#49=VECTOR('',#172,10.);
#50=VECTOR('',#173,10.);
#51=VECTOR('',#180,10.);
#52=VECTOR('',#183,10.);
#53=VECTOR('',#184,10.);
#54=VECTOR('',#189,12.75);
#55=CIRCLE('',#147,10.6);
#56=CIRCLE('',#148,10.6);
#57=CIRCLE('',#151,10.6);
#58=CIRCLE('',#152,10.6);
#59=CIRCLE('',#155,12.75);
#60=CIRCLE('',#156,12.75);
#61=VERTEX_POINT('',#198);
#62=VERTEX_POINT('',#199);
#63=VERTEX_POINT('',#201);
#64=VERTEX_POINT('',#203);
#65=VERTEX_POINT('',#207);
#66=VERTEX_POINT('',#209);
#67=VERTEX_POINT('',#213);
#68=VERTEX_POINT('',#215);
#69=VERTEX_POINT('',#222);
#70=VERTEX_POINT('',#224);
#71=EDGE_CURVE('',#61,#62,#55,.T.);
#72=EDGE_CURVE('',#63,#61,#37,.T.);
#73=EDGE_CURVE('',#64,#63,#56,.T.);
#74=EDGE_CURVE('',#64,#62,#38,.T.);
#75=EDGE_CURVE('',#62,#65,#39,.T.);
#76=EDGE_CURVE('',#66,#64,#40,.T.);
#77=EDGE_CURVE('',#66,#65,#41,.T.);
#78=EDGE_CURVE('',#65,#67,#57,.T.);
#79=EDGE_CURVE('',#68,#66,#58,.T.);
#80=EDGE_CURVE('',#68,#67,#42,.T.);
#81=EDGE_CURVE('',#67,#61,#43,.T.);
#82=EDGE_CURVE('',#63,#68,#44,.T.);
#83=EDGE_CURVE('',#69,#69,#59,.T.);
#84=EDGE_CURVE('',#69,#70,#45,.T.);
#85=EDGE_CURVE('',#70,#70,#60,.T.);
#86=ORIENTED_EDGE('',*,*,#71,.F.);
#87=ORIENTED_EDGE('',*,*,#72,.F.);
#88=ORIENTED_EDGE('',*,*,#73,.F.);
#89=ORIENTED_EDGE('',*,*,#74,.T.);
#90=ORIENTED_EDGE('',*,*,#75,.F.);
#91=ORIENTED_EDGE('',*,*,#74,.F.);
#92=ORIENTED_EDGE('',*,*,#76,.F.);
#93=ORIENTED_EDGE('',*,*,#77,.T.);
#94=ORIENTED_EDGE('',*,*,#78,.F.);
#95=ORIENTED_EDGE('',*,*,#77,.F.);
#96=ORIENTED_EDGE('',*,*,#79,.F.);
#97=ORIENTED_EDGE('',*,*,#80,.T.);
#98=ORIENTED_EDGE('',*,*,#81,.F.);
#99=ORIENTED_EDGE('',*,*,#80,.F.);
#100=ORIENTED_EDGE('',*,*,#82,.F.);
#101=ORIENTED_EDGE('',*,*,#72,.T.);
#102=ORIENTED_EDGE('',*,*,#83,.T.);
#103=ORIENTED_EDGE('',*,*,#84,.T.);
#104=ORIENTED_EDGE('',*,*,#85,.F.);
#105=ORIENTED_EDGE('',*,*,#84,.F.);
#106=ORIENTED_EDGE('',*,*,#83,.F.);
#107=ORIENTED_EDGE('',*,*,#71,.T.);
#108=ORIENTED_EDGE('',*,*,#75,.T.);
#109=ORIENTED_EDGE('',*,*,#78,.T.);
#110=ORIENTED_EDGE('',*,*,#81,.T.);
#111=ORIENTED_EDGE('',*,*,#85,.T.);
#112=ORIENTED_EDGE('',*,*,#73,.T.);
#113=ORIENTED_EDGE('',*,*,#82,.T.);
#114=ORIENTED_EDGE('',*,*,#79,.T.);
#115=ORIENTED_EDGE('',*,*,#76,.T.);
#116=CYLINDRICAL_SURFACE('',#146,10.6);
#117=CYLINDRICAL_SURFACE('',#150,10.6);
#118=CYLINDRICAL_SURFACE('',#154,12.75);
#119=ADVANCED_FACE('',(#21),#116,.F.);
#120=ADVANCED_FACE('',(#22),#17,.F.);
#121=ADVANCED_FACE('',(#23),#117,.F.);
#122=ADVANCED_FACE('',(#24),#18,.F.);
#123=ADVANCED_FACE('',(#25),#118,.T.);
#124=ADVANCED_FACE('',(#26,#15),#19,.F.);
#125=ADVANCED_FACE('',(#27,#16),#20,.T.);
#126=CLOSED_SHELL('',(#119,#120,#121,#122,#123,#124,#125));
#127=DERIVED_UNIT_ELEMENT(#129,1.);
#128=DERIVED_UNIT_ELEMENT(#234,3.);
#129=(
MASS_UNIT()
NAMED_UNIT(*)
SI_UNIT($,.GRAM.)
);
#130=DERIVED_UNIT((#127,#128));
#131=MEASURE_REPRESENTATION_ITEM('density measure',
POSITIVE_RATIO_MEASURE(1.4),#130);
#132=PROPERTY_DEFINITION_REPRESENTATION(#137,#134);
#133=PROPERTY_DEFINITION_REPRESENTATION(#138,#135);
#134=REPRESENTATION('material name',(#136),#231);
#135=REPRESENTATION('density',(#131),#231);
#136=DESCRIPTIVE_REPRESENTATION_ITEM('PVC - Rohrleitung',
'PVC - Rohrleitung');
#137=PROPERTY_DEFINITION('material property','material name',#241);
#138=PROPERTY_DEFINITION('material property','density of part',#241);
#139=DATE_TIME_ROLE('creation_date');
#140=APPLIED_DATE_AND_TIME_ASSIGNMENT(#141,#139,(#241));
#141=DATE_AND_TIME(#142,#143);
#142=CALENDAR_DATE(2006,23,1);
#143=LOCAL_TIME(16,46,42.,#144);
#144=COORDINATED_UNIVERSAL_TIME_OFFSET(0,0,.BEHIND.);
#145=AXIS2_PLACEMENT_3D('placement',#196,#159,#160);
#146=AXIS2_PLACEMENT_3D('',#197,#161,#162);
#147=AXIS2_PLACEMENT_3D('',#200,#163,#164);
#148=AXIS2_PLACEMENT_3D('',#204,#166,#167);
#149=AXIS2_PLACEMENT_3D('',#206,#169,#170);
#150=AXIS2_PLACEMENT_3D('',#212,#174,#175);
#151=AXIS2_PLACEMENT_3D('',#214,#176,#177);
#152=AXIS2_PLACEMENT_3D('',#216,#178,#179);
#153=AXIS2_PLACEMENT_3D('',#218,#181,#182);
#154=AXIS2_PLACEMENT_3D('',#221,#185,#186);
#155=AXIS2_PLACEMENT_3D('',#223,#187,#188);
#156=AXIS2_PLACEMENT_3D('',#226,#190,#191);
#157=AXIS2_PLACEMENT_3D('',#227,#192,#193);
#158=AXIS2_PLACEMENT_3D('',#228,#194,#195);
#159=DIRECTION('axis',(0.,0.,1.));
#160=DIRECTION('refdir',(1.,0.,0.));
#161=DIRECTION('center_axis',(0.,0.,1.));
#162=DIRECTION('ref_axis',(-0.254847974702642,0.966981132075472,0.));
#163=DIRECTION('center_axis',(0.,0.,-1.));
#164=DIRECTION('ref_axis',(-0.254847974702642,0.966981132075472,0.));
#165=DIRECTION('',(0.,0.,1.));
#166=DIRECTION('center_axis',(0.,0.,1.));
#167=DIRECTION('ref_axis',(-0.254847974702642,0.966981132075472,0.));
#168=DIRECTION('',(0.,0.,1.));
#169=DIRECTION('center_axis',(0.,-1.,0.));
#170=DIRECTION('ref_axis',(0.,0.,-1.));
#171=DIRECTION('',(-1.,0.,0.));
#172=DIRECTION('',(1.,0.,0.));
#173=DIRECTION('',(0.,0.,1.));
#174=DIRECTION('center_axis',(0.,0.,1.));
#175=DIRECTION('ref_axis',(0.254847974702642,-0.966981132075472,0.));
#176=DIRECTION('center_axis',(0.,0.,-1.));
#177=DIRECTION('ref_axis',(0.254847974702642,-0.966981132075472,0.));
#178=DIRECTION('center_axis',(0.,0.,1.));
#179=DIRECTION('ref_axis',(0.254847974702642,-0.966981132075472,0.));
#180=DIRECTION('',(0.,0.,1.));
#181=DIRECTION('center_axis',(0.,1.,0.));
#182=DIRECTION('ref_axis',(0.,0.,1.));
#183=DIRECTION('',(1.,0.,0.));
#184=DIRECTION('',(-1.,0.,0.));
#185=DIRECTION('center_axis',(0.,0.,1.));
#186=DIRECTION('ref_axis',(-1.,0.,0.));
#187=DIRECTION('center_axis',(0.,0.,-1.));
#188=DIRECTION('ref_axis',(-1.,0.,0.));
#189=DIRECTION('',(0.,0.,-1.));
#190=DIRECTION('center_axis',(0.,0.,-1.));
#191=DIRECTION('ref_axis',(-1.,0.,0.));
#192=DIRECTION('center_axis',(0.,0.,-1.));
#193=DIRECTION('ref_axis',(-1.,0.,0.));
#194=DIRECTION('center_axis',(0.,0.,-1.));
#195=DIRECTION('ref_axis',(-1.,0.,0.));
#196=CARTESIAN_POINT('',(0.,0.,0.));
#197=CARTESIAN_POINT('Origin',(0.,-0.0999999999999979,0.));
#198=CARTESIAN_POINT('',(2.70138853184801,10.15,2.));
#199=CARTESIAN_POINT('',(2.70138853184801,-10.35,2.));
#200=CARTESIAN_POINT('Origin',(0.,-0.0999999999999979,2.));
#201=CARTESIAN_POINT('',(2.70138853184801,10.15,0.));
#202=CARTESIAN_POINT('',(2.70138853184801,10.15,0.));
#203=CARTESIAN_POINT('',(2.70138853184801,-10.35,0.));
#204=CARTESIAN_POINT('Origin',(0.,-0.0999999999999979,0.));
#205=CARTESIAN_POINT('',(2.70138853184801,-10.35,0.));
#206=CARTESIAN_POINT('Origin',(2.70138853184801,-10.35,0.));
#207=CARTESIAN_POINT('',(-2.70138853184801,-10.35,2.));
#208=CARTESIAN_POINT('',(1.350694265924,-10.35,2.));
#209=CARTESIAN_POINT('',(-2.70138853184801,-10.35,0.));
#210=CARTESIAN_POINT('',(1.350694265924,-10.35,0.));
#211=CARTESIAN_POINT('',(-2.70138853184801,-10.35,0.));
#212=CARTESIAN_POINT('Origin',(0.,-0.0999999999999979,0.));
#213=CARTESIAN_POINT('',(-2.70138853184801,10.15,2.));
#214=CARTESIAN_POINT('Origin',(0.,-0.0999999999999979,2.));
#215=CARTESIAN_POINT('',(-2.70138853184801,10.15,0.));
#216=CARTESIAN_POINT('Origin',(0.,-0.0999999999999979,0.));
#217=CARTESIAN_POINT('',(-2.70138853184801,10.15,0.));
#218=CARTESIAN_POINT('Origin',(-2.70138853184801,10.15,0.));
#219=CARTESIAN_POINT('',(-1.350694265924,10.15,2.));
#220=CARTESIAN_POINT('',(-1.350694265924,10.15,0.));
#221=CARTESIAN_POINT('Origin',(0.,-0.0999999999999979,0.));
#222=CARTESIAN_POINT('',(12.75,-0.0999999999999963,2.));
#223=CARTESIAN_POINT('Origin',(0.,-0.0999999999999979,2.));
#224=CARTESIAN_POINT('',(12.75,-0.0999999999999963,0.));
#225=CARTESIAN_POINT('',(12.75,-0.0999999999999963,0.));
#226=CARTESIAN_POINT('Origin',(0.,-0.0999999999999979,0.));
#227=CARTESIAN_POINT('Origin',(0.,-0.0999999999999979,2.));
#228=CARTESIAN_POINT('Origin',(0.,-0.0999999999999979,0.));
#229=UNCERTAINTY_MEASURE_WITH_UNIT(LENGTH_MEASURE(0.01),#233,
'DISTANCE_ACCURACY_VALUE',
'Maximum model space distance between geometric entities at asserted c
onnectivities');
#230=UNCERTAINTY_MEASURE_WITH_UNIT(LENGTH_MEASURE(0.01),#233,
'DISTANCE_ACCURACY_VALUE',
'Maximum model space distance between geometric entities at asserted c
onnectivities');
#231=(
GEOMETRIC_REPRESENTATION_CONTEXT(3)
GLOBAL_UNCERTAINTY_ASSIGNED_CONTEXT((#229))
GLOBAL_UNIT_ASSIGNED_CONTEXT((#233,#236,#235))
REPRESENTATION_CONTEXT('','3D')
);
#232=(
GEOMETRIC_REPRESENTATION_CONTEXT(3)
GLOBAL_UNCERTAINTY_ASSIGNED_CONTEXT((#230))
GLOBAL_UNIT_ASSIGNED_CONTEXT((#233,#236,#235))
REPRESENTATION_CONTEXT('','3D')
);
#233=(
LENGTH_UNIT()
NAMED_UNIT(*)
SI_UNIT(.MILLI.,.METRE.)
);
#234=(
LENGTH_UNIT()
NAMED_UNIT(*)
SI_UNIT(.CENTI.,.METRE.)
);
#235=(
NAMED_UNIT(*)
SI_UNIT($,.STERADIAN.)
SOLID_ANGLE_UNIT()
);
#236=(
NAMED_UNIT(*)
PLANE_ANGLE_UNIT()
SI_UNIT($,.RADIAN.)
);
#237=SHAPE_DEFINITION_REPRESENTATION(#238,#239);
#238=PRODUCT_DEFINITION_SHAPE('',$,#241);
#239=SHAPE_REPRESENTATION('',(#145),#231);
#240=PRODUCT_DEFINITION_CONTEXT('part definition',#245,'design');
#241=PRODUCT_DEFINITION('20060213B0000003-AB','20060213B0000003-AB',#242,
#240);
#242=PRODUCT_DEFINITION_FORMATION('AB',$,#247);
#243=PRODUCT_RELATED_PRODUCT_CATEGORY('20060213B0000003-AB',
'20060213B0000003-AB',(#247));
#244=APPLICATION_PROTOCOL_DEFINITION('international standard',
'automotive_design',2009,#245);
#245=APPLICATION_CONTEXT(
'Core Data for Automotive Mechanical Design Process');
#246=PRODUCT_CONTEXT('part definition',#245,'mechanical');
#247=PRODUCT('20060213B0000003-AB','20060213B0000003-AB','HPD-RING',(#246));
#248=PRESENTATION_STYLE_ASSIGNMENT((#249));
#249=SURFACE_STYLE_USAGE(.BOTH.,#250);
#250=SURFACE_SIDE_STYLE('',(#251));
#251=SURFACE_STYLE_FILL_AREA(#252);
#252=FILL_AREA_STYLE('',(#253));
#253=FILL_AREA_STYLE_COLOUR('',#254);
#254=COLOUR_RGB('',0.92156862745098,0.92156862745098,0.92156862745098);
ENDSEC;
END-ISO-10303-21;
