ISO-10303-21;
HEADER;
/* Generated by software containing ST-Developer
 * from STEP Tools, Inc. (www.steptools.com) 
 */

FILE_DESCRIPTION(
/* description */ ('GUMMIDICHTRING'),
/* implementation_level */ '2;1');

FILE_NAME(
/* name */ 'C:\\Users\\ertl\\Desktop\\STEPS TRACEPARTS\\sgor.stp',
/* time_stamp */ '2020-04-08T07:45:14+02:00',
/* author */ ('ertl'),
/* organization */ (''),
/* preprocessor_version */ 'ST-DEVELOPER v17',
/* originating_system */ 'Autodesk Inventor 2018',
/* authorisation */ '2983,28 mm^3');

FILE_SCHEMA (('AUTOMOTIVE_DESIGN { 1 0 10303 214 3 1 1 }'));
ENDSEC;

DATA;
#10=MECHANICAL_DESIGN_GEOMETRIC_PRESENTATION_REPRESENTATION('',(#13),#393);
#11=SHAPE_REPRESENTATION_RELATIONSHIP('SRR','None',#400,#12);
#12=ADVANCED_BREP_SHAPE_REPRESENTATION('',(#14),#392);
#13=STYLED_ITEM('',(#409),#14);
#14=MANIFOLD_SOLID_BREP('Volumenk\X\F6rper1',#201);
#15=LINE('',#351,#19);
#16=LINE('',#366,#20);
#17=LINE('',#377,#21);
#18=LINE('',#388,#22);
#19=VECTOR('',#281,10.5);
#20=VECTOR('',#300,16.5);
#21=VECTOR('',#313,14.75);
#22=VECTOR('',#326,15.5);
#23=CYLINDRICAL_SURFACE('',#231,10.5);
#24=CYLINDRICAL_SURFACE('',#239,16.5);
#25=CYLINDRICAL_SURFACE('',#245,14.75);
#26=CYLINDRICAL_SURFACE('',#251,15.5);
#27=FACE_BOUND('',#47,.T.);
#28=FACE_BOUND('',#52,.T.);
#29=FACE_BOUND('',#55,.T.);
#30=FACE_BOUND('',#58,.T.);
#31=PLANE('',#228);
#32=PLANE('',#242);
#33=PLANE('',#248);
#34=PLANE('',#254);
#35=FACE_OUTER_BOUND('',#45,.T.);
#36=FACE_OUTER_BOUND('',#46,.T.);
#37=FACE_OUTER_BOUND('',#48,.T.);
#38=FACE_OUTER_BOUND('',#49,.T.);
#39=FACE_OUTER_BOUND('',#50,.T.);
#40=FACE_OUTER_BOUND('',#51,.T.);
#41=FACE_OUTER_BOUND('',#53,.T.);
#42=FACE_OUTER_BOUND('',#54,.T.);
#43=FACE_OUTER_BOUND('',#56,.T.);
#44=FACE_OUTER_BOUND('',#57,.T.);
#45=EDGE_LOOP('',(#133,#134,#135,#136,#137,#138,#139));
#46=EDGE_LOOP('',(#140,#141));
#47=EDGE_LOOP('',(#142,#143));
#48=EDGE_LOOP('',(#144,#145,#146,#147,#148,#149,#150));
#49=EDGE_LOOP('',(#151,#152,#153,#154,#155,#156,#157));
#50=EDGE_LOOP('',(#158,#159,#160,#161,#162,#163,#164));
#51=EDGE_LOOP('',(#165,#166));
#52=EDGE_LOOP('',(#167,#168));
#53=EDGE_LOOP('',(#169,#170,#171,#172,#173,#174));
#54=EDGE_LOOP('',(#175,#176));
#55=EDGE_LOOP('',(#177,#178));
#56=EDGE_LOOP('',(#179,#180,#181,#182,#183,#184));
#57=EDGE_LOOP('',(#185,#186));
#58=EDGE_LOOP('',(#187,#188));
#59=CIRCLE('',#222,11.5);
#60=CIRCLE('',#223,1.);
#61=CIRCLE('',#224,10.5);
#62=CIRCLE('',#225,10.5);
#63=CIRCLE('',#226,10.5);
#64=CIRCLE('',#227,11.5);
#65=CIRCLE('',#229,16.);
#66=CIRCLE('',#230,16.);
#67=CIRCLE('',#232,10.5);
#68=CIRCLE('',#233,10.5);
#69=CIRCLE('',#235,16.5);
#70=CIRCLE('',#236,16.5);
#71=CIRCLE('',#237,0.5);
#72=CIRCLE('',#238,16.5);
#73=CIRCLE('',#240,16.5);
#74=CIRCLE('',#241,16.5);
#75=CIRCLE('',#243,14.75);
#76=CIRCLE('',#244,14.75);
#77=CIRCLE('',#246,14.75);
#78=CIRCLE('',#247,14.75);
#79=CIRCLE('',#249,15.5);
#80=CIRCLE('',#250,15.5);
#81=CIRCLE('',#252,15.5);
#82=CIRCLE('',#253,15.5);
#83=VERTEX_POINT('',#331);
#84=VERTEX_POINT('',#332);
#85=VERTEX_POINT('',#334);
#86=VERTEX_POINT('',#336);
#87=VERTEX_POINT('',#338);
#88=VERTEX_POINT('',#343);
#89=VERTEX_POINT('',#344);
#90=VERTEX_POINT('',#348);
#91=VERTEX_POINT('',#349);
#92=VERTEX_POINT('',#354);
#93=VERTEX_POINT('',#355);
#94=VERTEX_POINT('',#357);
#95=VERTEX_POINT('',#362);
#96=VERTEX_POINT('',#363);
#97=VERTEX_POINT('',#368);
#98=VERTEX_POINT('',#369);
#99=VERTEX_POINT('',#373);
#100=VERTEX_POINT('',#374);
#101=VERTEX_POINT('',#379);
#102=VERTEX_POINT('',#380);
#103=VERTEX_POINT('',#384);
#104=VERTEX_POINT('',#385);
#105=EDGE_CURVE('',#83,#84,#59,.T.);
#106=EDGE_CURVE('',#84,#85,#60,.T.);
#107=EDGE_CURVE('',#85,#86,#61,.T.);
#108=EDGE_CURVE('',#86,#87,#62,.T.);
#109=EDGE_CURVE('',#87,#85,#63,.T.);
#110=EDGE_CURVE('',#84,#83,#64,.T.);
#111=EDGE_CURVE('',#88,#89,#65,.T.);
#112=EDGE_CURVE('',#89,#88,#66,.T.);
#113=EDGE_CURVE('',#90,#91,#67,.T.);
#114=EDGE_CURVE('',#91,#86,#15,.T.);
#115=EDGE_CURVE('',#91,#90,#68,.T.);
#116=EDGE_CURVE('',#92,#93,#69,.T.);
#117=EDGE_CURVE('',#93,#94,#70,.T.);
#118=EDGE_CURVE('',#94,#89,#71,.T.);
#119=EDGE_CURVE('',#94,#92,#72,.T.);
#120=EDGE_CURVE('',#95,#96,#73,.T.);
#121=EDGE_CURVE('',#96,#95,#74,.T.);
#122=EDGE_CURVE('',#96,#93,#16,.T.);
#123=EDGE_CURVE('',#97,#98,#75,.T.);
#124=EDGE_CURVE('',#98,#97,#76,.T.);
#125=EDGE_CURVE('',#99,#100,#77,.T.);
#126=EDGE_CURVE('',#100,#99,#78,.T.);
#127=EDGE_CURVE('',#100,#98,#17,.T.);
#128=EDGE_CURVE('',#101,#102,#79,.T.);
#129=EDGE_CURVE('',#102,#101,#80,.T.);
#130=EDGE_CURVE('',#103,#104,#81,.T.);
#131=EDGE_CURVE('',#104,#103,#82,.T.);
#132=EDGE_CURVE('',#104,#102,#18,.T.);
#133=ORIENTED_EDGE('',*,*,#105,.T.);
#134=ORIENTED_EDGE('',*,*,#106,.T.);
#135=ORIENTED_EDGE('',*,*,#107,.T.);
#136=ORIENTED_EDGE('',*,*,#108,.T.);
#137=ORIENTED_EDGE('',*,*,#109,.T.);
#138=ORIENTED_EDGE('',*,*,#106,.F.);
#139=ORIENTED_EDGE('',*,*,#110,.T.);
#140=ORIENTED_EDGE('',*,*,#111,.F.);
#141=ORIENTED_EDGE('',*,*,#112,.F.);
#142=ORIENTED_EDGE('',*,*,#105,.F.);
#143=ORIENTED_EDGE('',*,*,#110,.F.);
#144=ORIENTED_EDGE('',*,*,#113,.T.);
#145=ORIENTED_EDGE('',*,*,#114,.T.);
#146=ORIENTED_EDGE('',*,*,#107,.F.);
#147=ORIENTED_EDGE('',*,*,#109,.F.);
#148=ORIENTED_EDGE('',*,*,#108,.F.);
#149=ORIENTED_EDGE('',*,*,#114,.F.);
#150=ORIENTED_EDGE('',*,*,#115,.T.);
#151=ORIENTED_EDGE('',*,*,#116,.T.);
#152=ORIENTED_EDGE('',*,*,#117,.T.);
#153=ORIENTED_EDGE('',*,*,#118,.T.);
#154=ORIENTED_EDGE('',*,*,#112,.T.);
#155=ORIENTED_EDGE('',*,*,#111,.T.);
#156=ORIENTED_EDGE('',*,*,#118,.F.);
#157=ORIENTED_EDGE('',*,*,#119,.T.);
#158=ORIENTED_EDGE('',*,*,#120,.F.);
#159=ORIENTED_EDGE('',*,*,#121,.F.);
#160=ORIENTED_EDGE('',*,*,#122,.T.);
#161=ORIENTED_EDGE('',*,*,#116,.F.);
#162=ORIENTED_EDGE('',*,*,#119,.F.);
#163=ORIENTED_EDGE('',*,*,#117,.F.);
#164=ORIENTED_EDGE('',*,*,#122,.F.);
#165=ORIENTED_EDGE('',*,*,#120,.T.);
#166=ORIENTED_EDGE('',*,*,#121,.T.);
#167=ORIENTED_EDGE('',*,*,#123,.F.);
#168=ORIENTED_EDGE('',*,*,#124,.F.);
#169=ORIENTED_EDGE('',*,*,#125,.F.);
#170=ORIENTED_EDGE('',*,*,#126,.F.);
#171=ORIENTED_EDGE('',*,*,#127,.T.);
#172=ORIENTED_EDGE('',*,*,#124,.T.);
#173=ORIENTED_EDGE('',*,*,#123,.T.);
#174=ORIENTED_EDGE('',*,*,#127,.F.);
#175=ORIENTED_EDGE('',*,*,#128,.F.);
#176=ORIENTED_EDGE('',*,*,#129,.F.);
#177=ORIENTED_EDGE('',*,*,#125,.T.);
#178=ORIENTED_EDGE('',*,*,#126,.T.);
#179=ORIENTED_EDGE('',*,*,#130,.F.);
#180=ORIENTED_EDGE('',*,*,#131,.F.);
#181=ORIENTED_EDGE('',*,*,#132,.T.);
#182=ORIENTED_EDGE('',*,*,#129,.T.);
#183=ORIENTED_EDGE('',*,*,#128,.T.);
#184=ORIENTED_EDGE('',*,*,#132,.F.);
#185=ORIENTED_EDGE('',*,*,#130,.T.);
#186=ORIENTED_EDGE('',*,*,#131,.T.);
#187=ORIENTED_EDGE('',*,*,#113,.F.);
#188=ORIENTED_EDGE('',*,*,#115,.F.);
#189=TOROIDAL_SURFACE('',#221,11.5,1.);
#190=TOROIDAL_SURFACE('',#234,16.,0.5);
#191=ADVANCED_FACE('',(#35),#189,.T.);
#192=ADVANCED_FACE('',(#36,#27),#31,.T.);
#193=ADVANCED_FACE('',(#37),#23,.F.);
#194=ADVANCED_FACE('',(#38),#190,.T.);
#195=ADVANCED_FACE('',(#39),#24,.T.);
#196=ADVANCED_FACE('',(#40,#28),#32,.T.);
#197=ADVANCED_FACE('',(#41),#25,.T.);
#198=ADVANCED_FACE('',(#42,#29),#33,.T.);
#199=ADVANCED_FACE('',(#43),#26,.T.);
#200=ADVANCED_FACE('',(#44,#30),#34,.T.);
#201=CLOSED_SHELL('',(#191,#192,#193,#194,#195,#196,#197,#198,#199,#200));
#202=DERIVED_UNIT_ELEMENT(#204,1.);
#203=DERIVED_UNIT_ELEMENT(#395,3.);
#204=(
MASS_UNIT()
NAMED_UNIT(*)
SI_UNIT($,.GRAM.)
);
#205=DERIVED_UNIT((#202,#203));
#206=MEASURE_REPRESENTATION_ITEM('density measure',
POSITIVE_RATIO_MEASURE(1.),#205);
#207=PROPERTY_DEFINITION_REPRESENTATION(#212,#209);
#208=PROPERTY_DEFINITION_REPRESENTATION(#213,#210);
#209=REPRESENTATION('material name',(#211),#392);
#210=REPRESENTATION('density',(#206),#392);
#211=DESCRIPTIVE_REPRESENTATION_ITEM('Allgemein','Allgemein');
#212=PROPERTY_DEFINITION('material property','material name',#402);
#213=PROPERTY_DEFINITION('material property','density of part',#402);
#214=DATE_TIME_ROLE('creation_date');
#215=APPLIED_DATE_AND_TIME_ASSIGNMENT(#216,#214,(#402));
#216=DATE_AND_TIME(#217,#218);
#217=CALENDAR_DATE(2006,9,10);
#218=LOCAL_TIME(14,17,42.,#219);
#219=COORDINATED_UNIVERSAL_TIME_OFFSET(0,0,.BEHIND.);
#220=AXIS2_PLACEMENT_3D('placement',#329,#255,#256);
#221=AXIS2_PLACEMENT_3D('',#330,#257,#258);
#222=AXIS2_PLACEMENT_3D('',#333,#259,#260);
#223=AXIS2_PLACEMENT_3D('',#335,#261,#262);
#224=AXIS2_PLACEMENT_3D('',#337,#263,#264);
#225=AXIS2_PLACEMENT_3D('',#339,#265,#266);
#226=AXIS2_PLACEMENT_3D('',#340,#267,#268);
#227=AXIS2_PLACEMENT_3D('',#341,#269,#270);
#228=AXIS2_PLACEMENT_3D('',#342,#271,#272);
#229=AXIS2_PLACEMENT_3D('',#345,#273,#274);
#230=AXIS2_PLACEMENT_3D('',#346,#275,#276);
#231=AXIS2_PLACEMENT_3D('',#347,#277,#278);
#232=AXIS2_PLACEMENT_3D('',#350,#279,#280);
#233=AXIS2_PLACEMENT_3D('',#352,#282,#283);
#234=AXIS2_PLACEMENT_3D('',#353,#284,#285);
#235=AXIS2_PLACEMENT_3D('',#356,#286,#287);
#236=AXIS2_PLACEMENT_3D('',#358,#288,#289);
#237=AXIS2_PLACEMENT_3D('',#359,#290,#291);
#238=AXIS2_PLACEMENT_3D('',#360,#292,#293);
#239=AXIS2_PLACEMENT_3D('',#361,#294,#295);
#240=AXIS2_PLACEMENT_3D('',#364,#296,#297);
#241=AXIS2_PLACEMENT_3D('',#365,#298,#299);
#242=AXIS2_PLACEMENT_3D('',#367,#301,#302);
#243=AXIS2_PLACEMENT_3D('',#370,#303,#304);
#244=AXIS2_PLACEMENT_3D('',#371,#305,#306);
#245=AXIS2_PLACEMENT_3D('',#372,#307,#308);
#246=AXIS2_PLACEMENT_3D('',#375,#309,#310);
#247=AXIS2_PLACEMENT_3D('',#376,#311,#312);
#248=AXIS2_PLACEMENT_3D('',#378,#314,#315);
#249=AXIS2_PLACEMENT_3D('',#381,#316,#317);
#250=AXIS2_PLACEMENT_3D('',#382,#318,#319);
#251=AXIS2_PLACEMENT_3D('',#383,#320,#321);
#252=AXIS2_PLACEMENT_3D('',#386,#322,#323);
#253=AXIS2_PLACEMENT_3D('',#387,#324,#325);
#254=AXIS2_PLACEMENT_3D('',#389,#327,#328);
#255=DIRECTION('axis',(0.,0.,1.));
#256=DIRECTION('refdir',(1.,0.,0.));
#257=DIRECTION('center_axis',(1.,0.,0.));
#258=DIRECTION('ref_axis',(0.,0.,-1.));
#259=DIRECTION('center_axis',(-1.,0.,0.));
#260=DIRECTION('ref_axis',(0.,-1.,1.22464679914735E-16));
#261=DIRECTION('center_axis',(0.,-1.,-1.22464679914735E-16));
#262=DIRECTION('ref_axis',(0.,-1.22464679914735E-16,1.));
#263=DIRECTION('center_axis',(1.,0.,0.));
#264=DIRECTION('ref_axis',(0.,-1.,1.22464679914735E-16));
#265=DIRECTION('center_axis',(1.,0.,0.));
#266=DIRECTION('ref_axis',(0.,-1.,1.22464679914735E-16));
#267=DIRECTION('center_axis',(1.,0.,0.));
#268=DIRECTION('ref_axis',(0.,-1.,1.22464679914735E-16));
#269=DIRECTION('center_axis',(-1.,0.,0.));
#270=DIRECTION('ref_axis',(0.,-1.,1.22464679914735E-16));
#271=DIRECTION('center_axis',(-1.,0.,0.));
#272=DIRECTION('ref_axis',(0.,0.,1.));
#273=DIRECTION('center_axis',(1.,0.,0.));
#274=DIRECTION('ref_axis',(0.,-1.,1.22464679914735E-16));
#275=DIRECTION('center_axis',(1.,0.,0.));
#276=DIRECTION('ref_axis',(0.,-1.,1.22464679914735E-16));
#277=DIRECTION('center_axis',(1.,0.,0.));
#278=DIRECTION('ref_axis',(0.,1.,0.));
#279=DIRECTION('center_axis',(1.,0.,0.));
#280=DIRECTION('ref_axis',(0.,1.,0.));
#281=DIRECTION('',(-1.,0.,0.));
#282=DIRECTION('center_axis',(1.,0.,0.));
#283=DIRECTION('ref_axis',(0.,1.,0.));
#284=DIRECTION('center_axis',(1.,0.,0.));
#285=DIRECTION('ref_axis',(0.,0.,-1.));
#286=DIRECTION('center_axis',(-1.,0.,0.));
#287=DIRECTION('ref_axis',(0.,-1.,1.22464679914735E-16));
#288=DIRECTION('center_axis',(-1.,0.,0.));
#289=DIRECTION('ref_axis',(0.,-1.,1.22464679914735E-16));
#290=DIRECTION('center_axis',(0.,-1.,-1.22464679914735E-16));
#291=DIRECTION('ref_axis',(0.,-1.22464679914735E-16,1.));
#292=DIRECTION('center_axis',(-1.,0.,0.));
#293=DIRECTION('ref_axis',(0.,-1.,1.22464679914735E-16));
#294=DIRECTION('center_axis',(1.,0.,0.));
#295=DIRECTION('ref_axis',(0.,1.,0.));
#296=DIRECTION('center_axis',(1.,0.,0.));
#297=DIRECTION('ref_axis',(0.,1.,0.));
#298=DIRECTION('center_axis',(1.,0.,0.));
#299=DIRECTION('ref_axis',(0.,1.,0.));
#300=DIRECTION('',(-1.,0.,0.));
#301=DIRECTION('center_axis',(1.,0.,0.));
#302=DIRECTION('ref_axis',(0.,0.,-1.));
#303=DIRECTION('center_axis',(1.,0.,0.));
#304=DIRECTION('ref_axis',(0.,1.,0.));
#305=DIRECTION('center_axis',(1.,0.,0.));
#306=DIRECTION('ref_axis',(0.,1.,0.));
#307=DIRECTION('center_axis',(1.,0.,0.));
#308=DIRECTION('ref_axis',(0.,1.,0.));
#309=DIRECTION('center_axis',(1.,0.,0.));
#310=DIRECTION('ref_axis',(0.,1.,0.));
#311=DIRECTION('center_axis',(1.,0.,0.));
#312=DIRECTION('ref_axis',(0.,1.,0.));
#313=DIRECTION('',(-1.,0.,0.));
#314=DIRECTION('center_axis',(-1.,0.,0.));
#315=DIRECTION('ref_axis',(0.,0.,1.));
#316=DIRECTION('center_axis',(1.,0.,0.));
#317=DIRECTION('ref_axis',(0.,1.,0.));
#318=DIRECTION('center_axis',(1.,0.,0.));
#319=DIRECTION('ref_axis',(0.,1.,0.));
#320=DIRECTION('center_axis',(1.,0.,0.));
#321=DIRECTION('ref_axis',(0.,1.,0.));
#322=DIRECTION('center_axis',(1.,0.,0.));
#323=DIRECTION('ref_axis',(0.,1.,0.));
#324=DIRECTION('center_axis',(1.,0.,0.));
#325=DIRECTION('ref_axis',(0.,1.,0.));
#326=DIRECTION('',(-1.,0.,0.));
#327=DIRECTION('center_axis',(1.,0.,0.));
#328=DIRECTION('ref_axis',(0.,0.,-1.));
#329=CARTESIAN_POINT('',(0.,0.,0.));
#330=CARTESIAN_POINT('Origin',(1.,0.,0.));
#331=CARTESIAN_POINT('',(0.,11.5,-2.81668763803891E-15));
#332=CARTESIAN_POINT('',(0.,-1.40834381901946E-15,11.5));
#333=CARTESIAN_POINT('Origin',(0.,0.,0.));
#334=CARTESIAN_POINT('',(1.,-1.28587913910472E-15,10.5));
#335=CARTESIAN_POINT('Origin',(1.,-1.40834381901946E-15,11.5));
#336=CARTESIAN_POINT('',(1.,-10.5,-1.28587913910472E-15));
#337=CARTESIAN_POINT('Origin',(1.,0.,0.));
#338=CARTESIAN_POINT('',(1.,10.5,0.));
#339=CARTESIAN_POINT('Origin',(1.,0.,0.));
#340=CARTESIAN_POINT('Origin',(1.,0.,0.));
#341=CARTESIAN_POINT('Origin',(0.,0.,0.));
#342=CARTESIAN_POINT('Origin',(0.,13.5,0.));
#343=CARTESIAN_POINT('',(0.,16.,0.));
#344=CARTESIAN_POINT('',(0.,-1.95943487863577E-15,16.));
#345=CARTESIAN_POINT('Origin',(0.,0.,0.));
#346=CARTESIAN_POINT('Origin',(0.,0.,0.));
#347=CARTESIAN_POINT('Origin',(3.5,0.,0.));
#348=CARTESIAN_POINT('',(7.,10.5,0.));
#349=CARTESIAN_POINT('',(7.,-10.5,-1.28587913910472E-15));
#350=CARTESIAN_POINT('Origin',(7.,0.,0.));
#351=CARTESIAN_POINT('',(3.5,-10.5,-1.28587913910472E-15));
#352=CARTESIAN_POINT('Origin',(7.,0.,0.));
#353=CARTESIAN_POINT('Origin',(0.5,0.,0.));
#354=CARTESIAN_POINT('',(0.5,16.5,-4.04133443718627E-15));
#355=CARTESIAN_POINT('',(0.5,-16.5,-2.02066721859313E-15));
#356=CARTESIAN_POINT('Origin',(0.5,0.,0.));
#357=CARTESIAN_POINT('',(0.5,-2.02066721859313E-15,16.5));
#358=CARTESIAN_POINT('Origin',(0.5,0.,0.));
#359=CARTESIAN_POINT('Origin',(0.5,-1.95943487863577E-15,16.));
#360=CARTESIAN_POINT('Origin',(0.5,0.,0.));
#361=CARTESIAN_POINT('Origin',(1.25,0.,0.));
#362=CARTESIAN_POINT('',(2.5,16.5,0.));
#363=CARTESIAN_POINT('',(2.5,-16.5,-2.02066721859313E-15));
#364=CARTESIAN_POINT('Origin',(2.5,0.,0.));
#365=CARTESIAN_POINT('Origin',(2.5,0.,0.));
#366=CARTESIAN_POINT('',(1.25,-16.5,-2.02066721859313E-15));
#367=CARTESIAN_POINT('Origin',(2.5,15.625,0.));
#368=CARTESIAN_POINT('',(2.5,14.75,0.));
#369=CARTESIAN_POINT('',(2.5,-14.75,-1.80635402874235E-15));
#370=CARTESIAN_POINT('Origin',(2.5,0.,0.));
#371=CARTESIAN_POINT('Origin',(2.5,0.,0.));
#372=CARTESIAN_POINT('Origin',(3.25,0.,0.));
#373=CARTESIAN_POINT('',(4.,14.75,0.));
#374=CARTESIAN_POINT('',(4.,-14.75,-1.80635402874235E-15));
#375=CARTESIAN_POINT('Origin',(4.,0.,0.));
#376=CARTESIAN_POINT('Origin',(4.,0.,0.));
#377=CARTESIAN_POINT('',(3.25,-14.75,-1.80635402874235E-15));
#378=CARTESIAN_POINT('Origin',(4.,15.125,0.));
#379=CARTESIAN_POINT('',(4.,15.5,0.));
#380=CARTESIAN_POINT('',(4.,-15.5,-1.8982025386784E-15));
#381=CARTESIAN_POINT('Origin',(4.,0.,0.));
#382=CARTESIAN_POINT('Origin',(4.,0.,0.));
#383=CARTESIAN_POINT('Origin',(5.5,0.,0.));
#384=CARTESIAN_POINT('',(7.,15.5,0.));
#385=CARTESIAN_POINT('',(7.,-15.5,-1.8982025386784E-15));
#386=CARTESIAN_POINT('Origin',(7.,0.,0.));
#387=CARTESIAN_POINT('Origin',(7.,0.,0.));
#388=CARTESIAN_POINT('',(5.5,-15.5,-1.8982025386784E-15));
#389=CARTESIAN_POINT('Origin',(7.,13.,0.));
#390=UNCERTAINTY_MEASURE_WITH_UNIT(LENGTH_MEASURE(0.01),#394,
'DISTANCE_ACCURACY_VALUE',
'Maximum model space distance between geometric entities at asserted c
onnectivities');
#391=UNCERTAINTY_MEASURE_WITH_UNIT(LENGTH_MEASURE(0.01),#394,
'DISTANCE_ACCURACY_VALUE',
'Maximum model space distance between geometric entities at asserted c
onnectivities');
#392=(
GEOMETRIC_REPRESENTATION_CONTEXT(3)
GLOBAL_UNCERTAINTY_ASSIGNED_CONTEXT((#390))
GLOBAL_UNIT_ASSIGNED_CONTEXT((#394,#397,#396))
REPRESENTATION_CONTEXT('','3D')
);
#393=(
GEOMETRIC_REPRESENTATION_CONTEXT(3)
GLOBAL_UNCERTAINTY_ASSIGNED_CONTEXT((#391))
GLOBAL_UNIT_ASSIGNED_CONTEXT((#394,#397,#396))
REPRESENTATION_CONTEXT('','3D')
);
#394=(
LENGTH_UNIT()
NAMED_UNIT(*)
SI_UNIT(.MILLI.,.METRE.)
);
#395=(
LENGTH_UNIT()
NAMED_UNIT(*)
SI_UNIT(.CENTI.,.METRE.)
);
#396=(
NAMED_UNIT(*)
SI_UNIT($,.STERADIAN.)
SOLID_ANGLE_UNIT()
);
#397=(
NAMED_UNIT(*)
PLANE_ANGLE_UNIT()
SI_UNIT($,.RADIAN.)
);
#398=SHAPE_DEFINITION_REPRESENTATION(#399,#400);
#399=PRODUCT_DEFINITION_SHAPE('',$,#402);
#400=SHAPE_REPRESENTATION('',(#220),#392);
#401=PRODUCT_DEFINITION_CONTEXT('part definition',#406,'design');
#402=PRODUCT_DEFINITION('SGOR-U','20061010B0000001-00',#403,#401);
#403=PRODUCT_DEFINITION_FORMATION('00',$,#408);
#404=PRODUCT_RELATED_PRODUCT_CATEGORY('20061010B0000001-00',
'20061010B0000001-00',(#408));
#405=APPLICATION_PROTOCOL_DEFINITION('international standard',
'automotive_design',2009,#406);
#406=APPLICATION_CONTEXT(
'Core Data for Automotive Mechanical Design Process');
#407=PRODUCT_CONTEXT('part definition',#406,'mechanical');
#408=PRODUCT('SGOR-U','20061010B0000001-00','GUMMIDICHTRING',(#407));
#409=PRESENTATION_STYLE_ASSIGNMENT((#410));
#410=SURFACE_STYLE_USAGE(.BOTH.,#411);
#411=SURFACE_SIDE_STYLE('',(#412));
#412=SURFACE_STYLE_FILL_AREA(#413);
#413=FILL_AREA_STYLE('',(#414));
#414=FILL_AREA_STYLE_COLOUR('',#415);
#415=COLOUR_RGB('',0.250980392156863,0.250980392156863,0.250980392156863);
ENDSEC;
END-ISO-10303-21;
