ISO-10303-21;
HEADER;
/* Generated by software containing ST-Developer
 * from STEP Tools, Inc. (www.steptools.com) 
 */

FILE_DESCRIPTION(
/* description */ ('GUMMIDICHTRING'),
/* implementation_level */ '2;1');

FILE_NAME(
/* name */ 'C:\\Users\\ertl\\Desktop\\STEPS TRACEPARTS\\sgor_n.stp',
/* time_stamp */ '2020-04-08T07:44:06+02:00',
/* author */ ('ertl'),
/* organization */ (''),
/* preprocessor_version */ 'ST-DEVELOPER v17',
/* originating_system */ 'Autodesk Inventor 2018',
/* authorisation */ '1326,14 mm^3');

FILE_SCHEMA (('AUTOMOTIVE_DESIGN { 1 0 10303 214 3 1 1 }'));
ENDSEC;

DATA;
#10=MECHANICAL_DESIGN_GEOMETRIC_PRESENTATION_REPRESENTATION('',(#13),#196);
#11=SHAPE_REPRESENTATION_RELATIONSHIP('SRR','None',#203,#12);
#12=ADVANCED_BREP_SHAPE_REPRESENTATION('',(#14),#195);
#13=STYLED_ITEM('',(#212),#14);
#14=MANIFOLD_SOLID_BREP('Volumenk\X\F6rper1',#100);
#15=LINE('',#180,#18);
#16=LINE('',#185,#19);
#17=LINE('',#190,#20);
#18=VECTOR('',#150,14.5);
#19=VECTOR('',#155,10.5);
#20=VECTOR('',#162,15.);
#21=CYLINDRICAL_SURFACE('',#124,14.5);
#22=CYLINDRICAL_SURFACE('',#127,10.5);
#23=CYLINDRICAL_SURFACE('',#130,15.);
#24=FACE_BOUND('',#34,.T.);
#25=FACE_BOUND('',#39,.T.);
#26=FACE_BOUND('',#41,.T.);
#27=FACE_OUTER_BOUND('',#33,.T.);
#28=FACE_OUTER_BOUND('',#35,.T.);
#29=FACE_OUTER_BOUND('',#36,.T.);
#30=FACE_OUTER_BOUND('',#37,.T.);
#31=FACE_OUTER_BOUND('',#38,.T.);
#32=FACE_OUTER_BOUND('',#40,.T.);
#33=EDGE_LOOP('',(#69));
#34=EDGE_LOOP('',(#70,#71));
#35=EDGE_LOOP('',(#72,#73,#74,#75,#76,#77));
#36=EDGE_LOOP('',(#78,#79,#80,#81));
#37=EDGE_LOOP('',(#82,#83,#84,#85));
#38=EDGE_LOOP('',(#86));
#39=EDGE_LOOP('',(#87));
#40=EDGE_LOOP('',(#88,#89));
#41=EDGE_LOOP('',(#90));
#42=CIRCLE('',#121,15.);
#43=CIRCLE('',#122,14.5);
#44=CIRCLE('',#123,14.5);
#45=CIRCLE('',#125,14.5);
#46=CIRCLE('',#126,14.5);
#47=CIRCLE('',#128,10.5);
#48=CIRCLE('',#129,10.5);
#49=CIRCLE('',#131,15.);
#50=VERTEX_POINT('',#169);
#51=VERTEX_POINT('',#171);
#52=VERTEX_POINT('',#172);
#53=VERTEX_POINT('',#176);
#54=VERTEX_POINT('',#177);
#55=VERTEX_POINT('',#182);
#56=VERTEX_POINT('',#184);
#57=VERTEX_POINT('',#188);
#58=EDGE_CURVE('',#50,#50,#42,.T.);
#59=EDGE_CURVE('',#51,#52,#43,.T.);
#60=EDGE_CURVE('',#52,#51,#44,.T.);
#61=EDGE_CURVE('',#53,#54,#45,.T.);
#62=EDGE_CURVE('',#54,#53,#46,.T.);
#63=EDGE_CURVE('',#54,#52,#15,.T.);
#64=EDGE_CURVE('',#55,#55,#47,.T.);
#65=EDGE_CURVE('',#55,#56,#16,.T.);
#66=EDGE_CURVE('',#56,#56,#48,.T.);
#67=EDGE_CURVE('',#57,#57,#49,.T.);
#68=EDGE_CURVE('',#57,#50,#17,.T.);
#69=ORIENTED_EDGE('',*,*,#58,.F.);
#70=ORIENTED_EDGE('',*,*,#59,.T.);
#71=ORIENTED_EDGE('',*,*,#60,.T.);
#72=ORIENTED_EDGE('',*,*,#61,.F.);
#73=ORIENTED_EDGE('',*,*,#62,.F.);
#74=ORIENTED_EDGE('',*,*,#63,.T.);
#75=ORIENTED_EDGE('',*,*,#59,.F.);
#76=ORIENTED_EDGE('',*,*,#60,.F.);
#77=ORIENTED_EDGE('',*,*,#63,.F.);
#78=ORIENTED_EDGE('',*,*,#64,.F.);
#79=ORIENTED_EDGE('',*,*,#65,.T.);
#80=ORIENTED_EDGE('',*,*,#66,.F.);
#81=ORIENTED_EDGE('',*,*,#65,.F.);
#82=ORIENTED_EDGE('',*,*,#67,.T.);
#83=ORIENTED_EDGE('',*,*,#68,.T.);
#84=ORIENTED_EDGE('',*,*,#58,.T.);
#85=ORIENTED_EDGE('',*,*,#68,.F.);
#86=ORIENTED_EDGE('',*,*,#67,.F.);
#87=ORIENTED_EDGE('',*,*,#66,.T.);
#88=ORIENTED_EDGE('',*,*,#61,.T.);
#89=ORIENTED_EDGE('',*,*,#62,.T.);
#90=ORIENTED_EDGE('',*,*,#64,.T.);
#91=PLANE('',#120);
#92=PLANE('',#132);
#93=PLANE('',#133);
#94=ADVANCED_FACE('',(#27,#24),#91,.F.);
#95=ADVANCED_FACE('',(#28),#21,.T.);
#96=ADVANCED_FACE('',(#29),#22,.F.);
#97=ADVANCED_FACE('',(#30),#23,.T.);
#98=ADVANCED_FACE('',(#31,#25),#92,.F.);
#99=ADVANCED_FACE('',(#32,#26),#93,.T.);
#100=CLOSED_SHELL('',(#94,#95,#96,#97,#98,#99));
#101=DERIVED_UNIT_ELEMENT(#103,1.);
#102=DERIVED_UNIT_ELEMENT(#198,3.);
#103=(
MASS_UNIT()
NAMED_UNIT(*)
SI_UNIT($,.GRAM.)
);
#104=DERIVED_UNIT((#101,#102));
#105=MEASURE_REPRESENTATION_ITEM('density measure',
POSITIVE_RATIO_MEASURE(0.93),#104);
#106=PROPERTY_DEFINITION_REPRESENTATION(#111,#108);
#107=PROPERTY_DEFINITION_REPRESENTATION(#112,#109);
#108=REPRESENTATION('material name',(#110),#195);
#109=REPRESENTATION('density',(#105),#195);
#110=DESCRIPTIVE_REPRESENTATION_ITEM('Gummi','Gummi');
#111=PROPERTY_DEFINITION('material property','material name',#205);
#112=PROPERTY_DEFINITION('material property','density of part',#205);
#113=DATE_TIME_ROLE('creation_date');
#114=APPLIED_DATE_AND_TIME_ASSIGNMENT(#115,#113,(#205));
#115=DATE_AND_TIME(#116,#117);
#116=CALENDAR_DATE(2005,2,6);
#117=LOCAL_TIME(6,50,48.,#118);
#118=COORDINATED_UNIVERSAL_TIME_OFFSET(0,0,.BEHIND.);
#119=AXIS2_PLACEMENT_3D('placement',#167,#134,#135);
#120=AXIS2_PLACEMENT_3D('',#168,#136,#137);
#121=AXIS2_PLACEMENT_3D('',#170,#138,#139);
#122=AXIS2_PLACEMENT_3D('',#173,#140,#141);
#123=AXIS2_PLACEMENT_3D('',#174,#142,#143);
#124=AXIS2_PLACEMENT_3D('',#175,#144,#145);
#125=AXIS2_PLACEMENT_3D('',#178,#146,#147);
#126=AXIS2_PLACEMENT_3D('',#179,#148,#149);
#127=AXIS2_PLACEMENT_3D('',#181,#151,#152);
#128=AXIS2_PLACEMENT_3D('',#183,#153,#154);
#129=AXIS2_PLACEMENT_3D('',#186,#156,#157);
#130=AXIS2_PLACEMENT_3D('',#187,#158,#159);
#131=AXIS2_PLACEMENT_3D('',#189,#160,#161);
#132=AXIS2_PLACEMENT_3D('',#191,#163,#164);
#133=AXIS2_PLACEMENT_3D('',#192,#165,#166);
#134=DIRECTION('axis',(0.,0.,1.));
#135=DIRECTION('refdir',(1.,0.,0.));
#136=DIRECTION('center_axis',(1.,0.,0.));
#137=DIRECTION('ref_axis',(0.,0.,-1.));
#138=DIRECTION('center_axis',(1.,0.,0.));
#139=DIRECTION('ref_axis',(0.,-1.,0.));
#140=DIRECTION('center_axis',(1.,0.,0.));
#141=DIRECTION('ref_axis',(6.54259931672287E-17,0.,1.));
#142=DIRECTION('center_axis',(1.,0.,0.));
#143=DIRECTION('ref_axis',(6.54259931672287E-17,0.,1.));
#144=DIRECTION('center_axis',(1.,0.,0.));
#145=DIRECTION('ref_axis',(6.54259931672287E-17,0.,1.));
#146=DIRECTION('center_axis',(-1.,0.,0.));
#147=DIRECTION('ref_axis',(6.54259931672287E-17,0.,1.));
#148=DIRECTION('center_axis',(-1.,0.,0.));
#149=DIRECTION('ref_axis',(6.54259931672287E-17,0.,1.));
#150=DIRECTION('',(1.,0.,0.));
#151=DIRECTION('center_axis',(1.,0.,0.));
#152=DIRECTION('ref_axis',(0.,-1.,0.));
#153=DIRECTION('center_axis',(1.,0.,0.));
#154=DIRECTION('ref_axis',(0.,-1.,0.));
#155=DIRECTION('',(1.,0.,0.));
#156=DIRECTION('center_axis',(-1.,0.,0.));
#157=DIRECTION('ref_axis',(0.,-1.,0.));
#158=DIRECTION('center_axis',(1.,0.,0.));
#159=DIRECTION('ref_axis',(0.,-1.,0.));
#160=DIRECTION('center_axis',(-1.,0.,0.));
#161=DIRECTION('ref_axis',(0.,-1.,0.));
#162=DIRECTION('',(-1.,0.,0.));
#163=DIRECTION('center_axis',(-1.,0.,0.));
#164=DIRECTION('ref_axis',(0.,0.,1.));
#165=DIRECTION('center_axis',(-1.,0.,0.));
#166=DIRECTION('ref_axis',(0.,0.,1.));
#167=CARTESIAN_POINT('',(0.,0.,0.));
#168=CARTESIAN_POINT('Origin',(2.5,0.,17.));
#169=CARTESIAN_POINT('',(2.5,15.,1.83697019872103E-15));
#170=CARTESIAN_POINT('Origin',(2.5,0.,0.));
#171=CARTESIAN_POINT('',(2.5,0.,14.5));
#172=CARTESIAN_POINT('',(2.5,1.77573785876366E-15,-14.5));
#173=CARTESIAN_POINT('Origin',(2.5,0.,0.));
#174=CARTESIAN_POINT('Origin',(2.5,0.,0.));
#175=CARTESIAN_POINT('Origin',(1.25,0.,0.));
#176=CARTESIAN_POINT('',(0.,0.,14.5));
#177=CARTESIAN_POINT('',(-1.94289029309402E-15,1.77573785876366E-15,-14.5));
#178=CARTESIAN_POINT('Origin',(0.,0.,0.));
#179=CARTESIAN_POINT('Origin',(0.,0.,0.));
#180=CARTESIAN_POINT('',(1.25,1.77573785876366E-15,-14.5));
#181=CARTESIAN_POINT('Origin',(0.,0.,0.));
#182=CARTESIAN_POINT('',(0.,10.5,1.28587913910472E-15));
#183=CARTESIAN_POINT('Origin',(0.,0.,0.));
#184=CARTESIAN_POINT('',(4.,10.5,1.28587913910472E-15));
#185=CARTESIAN_POINT('',(0.,10.5,1.28587913910472E-15));
#186=CARTESIAN_POINT('Origin',(4.,0.,0.));
#187=CARTESIAN_POINT('Origin',(0.,0.,0.));
#188=CARTESIAN_POINT('',(4.,15.,1.83697019872103E-15));
#189=CARTESIAN_POINT('Origin',(4.,0.,0.));
#190=CARTESIAN_POINT('',(0.,15.,1.83697019872103E-15));
#191=CARTESIAN_POINT('Origin',(4.,0.,0.));
#192=CARTESIAN_POINT('Origin',(0.,0.,0.));
#193=UNCERTAINTY_MEASURE_WITH_UNIT(LENGTH_MEASURE(0.01),#197,
'DISTANCE_ACCURACY_VALUE',
'Maximum model space distance between geometric entities at asserted c
onnectivities');
#194=UNCERTAINTY_MEASURE_WITH_UNIT(LENGTH_MEASURE(0.01),#197,
'DISTANCE_ACCURACY_VALUE',
'Maximum model space distance between geometric entities at asserted c
onnectivities');
#195=(
GEOMETRIC_REPRESENTATION_CONTEXT(3)
GLOBAL_UNCERTAINTY_ASSIGNED_CONTEXT((#193))
GLOBAL_UNIT_ASSIGNED_CONTEXT((#197,#200,#199))
REPRESENTATION_CONTEXT('','3D')
);
#196=(
GEOMETRIC_REPRESENTATION_CONTEXT(3)
GLOBAL_UNCERTAINTY_ASSIGNED_CONTEXT((#194))
GLOBAL_UNIT_ASSIGNED_CONTEXT((#197,#200,#199))
REPRESENTATION_CONTEXT('','3D')
);
#197=(
LENGTH_UNIT()
NAMED_UNIT(*)
SI_UNIT(.MILLI.,.METRE.)
);
#198=(
LENGTH_UNIT()
NAMED_UNIT(*)
SI_UNIT(.CENTI.,.METRE.)
);
#199=(
NAMED_UNIT(*)
SI_UNIT($,.STERADIAN.)
SOLID_ANGLE_UNIT()
);
#200=(
NAMED_UNIT(*)
PLANE_ANGLE_UNIT()
SI_UNIT($,.RADIAN.)
);
#201=SHAPE_DEFINITION_REPRESENTATION(#202,#203);
#202=PRODUCT_DEFINITION_SHAPE('',$,#205);
#203=SHAPE_REPRESENTATION('',(#119),#195);
#204=PRODUCT_DEFINITION_CONTEXT('part definition',#209,'design');
#205=PRODUCT_DEFINITION('20050602B0000005-00','20050602B0000005-00',#206,
#204);
#206=PRODUCT_DEFINITION_FORMATION('00',$,#211);
#207=PRODUCT_RELATED_PRODUCT_CATEGORY('20050602B0000005-00',
'20050602B0000005-00',(#211));
#208=APPLICATION_PROTOCOL_DEFINITION('international standard',
'automotive_design',2009,#209);
#209=APPLICATION_CONTEXT(
'Core Data for Automotive Mechanical Design Process');
#210=PRODUCT_CONTEXT('part definition',#209,'mechanical');
#211=PRODUCT('20050602B0000005-00','20050602B0000005-00',
'GUMMIDICHTRING',(#210));
#212=PRESENTATION_STYLE_ASSIGNMENT((#213));
#213=SURFACE_STYLE_USAGE(.BOTH.,#214);
#214=SURFACE_SIDE_STYLE('',(#215));
#215=SURFACE_STYLE_FILL_AREA(#216);
#216=FILL_AREA_STYLE('',(#217));
#217=FILL_AREA_STYLE_COLOUR('',#218);
#218=COLOUR_RGB('',0.258823529411765,0.258823529411765,0.258823529411765);
ENDSEC;
END-ISO-10303-21;
